Guitaretab - guitar tabs
Song name
# A B C D E F G H I J K L M N O P Q R S T U V W X Y Z

The Veils - Talk Down The Girl tab

****************************************************************************
                       The Veils - Talk Down The Girl
****************************************************************************

Tabbed by: Paul
Website: http://www.theveils.net
Contact: http://forum.theveils.net

Tuning: EADGBe

Capo 3rd fret

==============

Am7  x02010
Em   022000

==============

|-----------------------------------------------------------------------|
|-----------------------------------------------------------------------|
|-----4---2-----0---2------2-----------4---2-----0-2--------------------|
|---2---2---2-----2------2---2-------2---2---2-------2------------------|
|-0-----------0--------------------0-----------0------------------------|
|-----------------------------------------------------------------------|

|---------------0----0-0-----0-0-0-0----0----0-0------------------------|
|---------------0----0-0-----0-0-0-1----1----1-1------------------------|
|-----0---0---0-0----0-0-----0-0-0-0----0----0-0------------------------|
|---2---2---2---2----2-2-----2-2-2-2----2----2-2------------------------|
|-2-------------2----2-2-----2-2-2-0----0----0-0------------------------|
|---------------0----0-0-----0-0-0--------------------------------------|

Am7
seven moons for seven seas

won't let them get the better of me
Em
donīt pass me by
Em7		Am7
don't pass me by

as my seven fears are friend of me
[ Tab from: http://www.guitaretab.com/t/the-veils/59472.html ]
they'll take their leave eventually, well
Em
I didnīt try
Em7	    Am7
I didnīt try


	    Em
my love was strong
	     Am
for now it's gone
	       Em
eleven stories up
		Am
from the second floor
	   Em
a love not worn
	      Am
is a love not done 

let me now


Em
talk down the girl
G		  Am7
talk down the girl


Am7
so little knowledge known to me

so little colour left to see
Em
but black and white
Em7		Am7
black and white

a silhouette at seventeen

if they can find what's left of me
Em
Iīll burn the fire
Em7		Am7
burn in the fire


	    Em
my love was strong
	     Am
for now it's gone
	       Em
eleven stories up
		Am
from the second floor
	   Em
a love not worn
	      Am
is a love not done 

let me


Em
talk down the girl
G		  Am7
talk down the girl


Am7
there's little more for us to say

you've made your mind up anyway
Em
another world
Em7	     Am7
another world
Am7
i hate to leave you this way

but i can't think why you should stay now
Em
i miss my girl
Em7	      Am7
i miss my girl


	    Em
my love was strong
	     Am
for now it's gone
	       Em
eleven stories up
		Am
from the second floor
	   Em
a love not worn
	      Am
is a love not done 

let me now 


Em
talk down the girl
G		  Am7
talk down the girl


	  Em		      G			Am7
Love will talk down the girl, talk down the girl
	Em		    G		      Am7
I still talk down the girl, talk down the girl
	  Em		      G			Am7
Love will talk down the girl, talk down the girl...
Related for Talk Down The Girl tab