Song name
# A B C D E F G H I J K L M N O P Q R S T U V W X Y Z

The Veils - Jesus For The Jugular tab

Jesus For The Jugular
The Veils
Nux Vomica

This is my first tab, a really cool song by one of my favourite local bands. Standard 
with just a little gain.


e|-2------2-x------2--------2-x---2--------2-x----2-------------|
B|-3------3-x------2---h3---3-x---2---h3---3-x----3-------------|
G|-4------4-x------2---h4---4-x---2---h3---4-x----4-------------|
D|-4------4-x------2---h4---4-x---2---h4---4-x-------5-5--7-7---|
A|-2------2-x------2--------2-x---2--------2-x-------5-5--7-7---|
E|---------------------------------------------------3-3--5-5---|

e|-2------2-x------2--------2-x---2--------2-x------------------|
B|-3------3-x------2---h3---3-x---2---h3---3-x------------------|
G|-4------4-x------2---h4---4-x---2---h3---4-x------------------|
D|-4------4-x------2---h4---4-x---2---h4---4-x------------------|
A|-2------2-x------2--------2-x---2--------2-x------------------|
E|--------------------------------------------------------------|

e|-2------2-x------2--------2-x---2--------2-x---------x---x-----|
B|-3------3-x------2---h3---3-x---2---h3---3-x---------x---x-----|
G|-4------4-x------2---h4---4-x---2---h3---4-x---------x---x-----|
D|-4------4-x------2---h4---4-x---2---h4---4-x---------x---x-----|
A|-2------2-x------2--------2-x---2--------2-x---------x---x-----|
E|-----------------------------------------------------x---x-----|

e|-2------2-x------2--------2-x---2b1r2----------------x---x-----|
B|-3------3-x------2---h3---3-x---3b2r3----------------x---x-----|
G|-4------4-x------2---h4---4-x---4b3r4----------------x---x-----|
D|-4------4-x------2---h4---4-x---4b3r4----------------x---x-----|
A|-2------2-x------2--------2-x---2b1r2----------------x---x-----|
E|-----------------------------------------------------x---x-----|

Repeat for the entire song. Slight variations each time, but nothing major.


Comments, complaints, suggustions email me at burntheipods@hotmail.com or visit www.myspace.com/robthemac
Tap to rate this tab
# A B C D E F G H I J K L M N O P Q R S T U V W X Y Z