Song name
# A B C D E F G H I J K L M N O P Q R S T U V W X Y Z

The Veils - Calliope tab

**************************************************************************
                        Calliope - The Veils
**************************************************************************

Tabbed by: Craig

Easy song to figure out. The trick is getting the strum pattern down

Tuning: EADGBe

Figure 1: Intro (electric guitar)

e|---------------------------------------------|
B|--13--------10---------8---------8-----------|
G|--14--------12---------9--------10-----------|
D|--14--------12---------9--------10-----------|
A|--12--------10---------7---------8-----------|
E|---------------------------------------------|

Figure 2: Verse (acoustic guitar w/ palm muting)

      Am             G               Em                F
e|------------3-------------------x--------------|
B|--1---------3-------------------x--------------|
G|--2-----------------------------2--------------|
D|--2-------------------2---------3--------------|
A|------------x---------2---------3--------------|
E|------------3------------------ -1-------------|

Figure 3: Chorus

      C                G                Em                F
e|------------3--------------------x----------|
B|--1---------3--------------------x----------|
G|---------------------------------2----------|
D|--2-------------------2--------- 3----------|
A|--3---------x---------2----------3----------|
E|------------3--------------------1----------|

That's it... the bridge part is just a combination of Figures 2 and 3
Tap to rate this tab
 
# A B C D E F G H I J K L M N O P Q R S T U V W X Y Z