Song name
# A B C D E F G H I J K L M N O P Q R S T U V W X Y Z

The Velisha - Last Soldier tab

Help us improve GuitareTab! Take a short survey!
-----------------------------------------------------------------------------
			     LAST SOLDIER - The Velisha
-----------------------------------------------------------------------------
Tabbed by:Brandon

Tuning:Standard

  Intro/chorus
e|----------------------------------------------------------------------|
B|----------------------------------------------------------------------|
G|----------9-9-9-9-12-12-12-12-11-9------------------------------------|
D|--9-9-9-9-9-9-9-9-12-12-12-12-11-9------------------------------------|
A|--9-9-9-9-7-7-7-7-10-10-10-10- 9-7------------------------------------|
E|--7-7-7-7-------------------------------------------------------------|


  The verse is random notes. Just improvise when you play the verse.
  Good song by a good band.
Related for Last Soldier tab