Guitaretab - guitar tabs
Song name
# A B C D E F G H I J K L M N O P Q R S T U V W X Y Z

The Velisha - 1-2-3-4 tab

-------------------------------------------------------------------------------
			     SONG NAME - Band Name
-------------------------------------------------------------------------------
Tabbed by: Aaron321
Email: amkippy@yahoo.com

Tuning: Standard
   Intro
e|---------------------------------------------------------------------------|
B|---------------------------------------------------------------------------|
G|---------------------------------------------------------------------------|
D|---9---9---9---9--x\-------------------------------------------------------|
A|---9---9---9---9--x\-------------------------------------------------------|
E|---7---7---7---7--x\-------------------------------------------------------|
     x4  .       .
[ Tab from: http://www.guitaretab.com/t/the-velisha/83877.html ]
   Verse
e|---------------------------------------------------------------------------------|
B|---------------------------------------------------------------------------------|
G|---------11-11---12-12---9-9---------11-11---12-12---7-7-------------------------|
D|---9-9---11-11---12-12---9-9---9-9---11-11---12-12---7-7-------------------------|
A|---9-9---9--9----10-10---7-7---9-9---9--9----10-10---5-5-------------------------|
E|---7-7-------------------------7-7-----------------------------------------------|


   Chorus
e|----------------------------------------------------------------|
B|----------------------------------------------------------------|
G|----------7-7--7----------------------------7-7--7--------------|
D|--7-7--7--7-7--7--9-9-9-9-9-9-9-9---7-7--7--7-7--7--9-----------|
A|--7-7--7--5-5--5--9-9-9-9-9-9-9-9---7-7--7--5-5--5--9-----------|
E|--5-5--5----------7-7-7-7-7-7-7-7---5-5--5----------7-----------|
                                                      . (1-2-3-4--|)

e|----------------------------------------------------------|
B|----------------------------------------------------------|
G|----------7-7--7----------------------------7-7--7--------|
D|--7-7--7--7-7--7--9-9-9-9-9-9-9-9---7-7--7--7-7--7--9--9--|
A|--7-7--7--5-5--5--9-9-9-9-9-9-9-9---7-7--7--5-5--5--9--9--|
E|--5-5--5----------7-7-7-7-7-7-7-7---5-5--5----------7--7--|
                                                      .
x\= pick slide
.= Stocato (short fast note)
Related for 1-2-3-4 tab
×
1-2-3-4