Song name
# A B C D E F G H I J K L M N O P Q R S T U V W X Y Z

The Venetia Fair - A Man Like Me tab

-------------------------------------------------------------------------------
			     A MAN LIKE ME - The Venetia Fair
-------------------------------------------------------------------------------
myspace.com/thevenetiafair
Tabbed by: Chark King
Email: charktvf@gmail.com

Tuning: Drop C


Intro, Part A:
D|---5-----5---8/10------------0--------5-----5---8/10------------0----------|
A|-----6-----6------8\6---6----5----------6-----6------8\6---6----5----------|
F|-7-----7--------------7---7--7------7-----7--------------7---7--7----------|
C|---------------------------------------------------------------------------|
G|---------------------------------------------------------------------------|
C|---------------------------------------------------------------------------|

D|---5------------8/10-----0-----------5-----5-------------------------------|
A|-----6-------------------5-------------6-----6-----------------------------|
F|-7--------------------7--7---------7-----7---------------------------------|
C|-----------------------------------------------7--6--7--8--7---------------|
G|-------5-0-5-0-------------------------------------------------------------|
C|---------------------------------------------------------------------------|

Intro, Part B:
D|---------------------------------------------------------------------------|
A|---------------------------------------------------------------------------|
F|---------------------------------------------------------------------------|
C|-7-7-7--0-0-0-0--7-7-7---------------3-3-3--3-3-3-5-3--2-2-2---------------|
G|-5-5-5--0-0-0-0--5-5-5--5-8-5-4-3-2--1-1-1--1-1-1-3-1--0-0-0----0-1-0-1-2-3-4-5-|
C|--------0-0-0-0-----------------------------------------------6------------|

D|---------------------------------------------------------------------------|
A|---------------------------------------------------------------------------|
F|--------------------------------------------------------------2-1-2-3-2/7--|
C|-7-7-7--0-0-0-0--7-7-7---------------3-3-3--3-3-3-5-3--2-2-2---------------|
G|-5-5-5--0-0-0-0--5-5-5--5-8-5-4-3-2--1-1-1--1-1-1-3-1--0-0-0---------------|
C|--------0-0-0-0------------------------------------------------------------|

Verse 1, Part A:
D|---8/10----------------------------8/10------------------------------------|
A|--------11-10---------------------------11-10------------------------------|
F|-7------------10\7--7---7---7---7-------------10\7---7---7---7-------------|
C|----------------------7---7---7--------------------7---7---7---7-----------|
G|---------------------------------------------------------------------------|
C|---------------------------------------------------------------------------|

The next part involves a lot of noise and sliding around. 
I'm not going to tab it. Do your best.

Verse 1, Part B: (palm-muted)
D|---------------------------------------------------------------------------|
A|---------------------------------------------------------------------------|
F|---------------------------------------------------------------------------|
C|-------7-8-7------------7-8-7----------------------------------------------|
G|-5-7-8-------8-7--5-7-8-------8-7------------------------------------------|
C|---------------------------------------------------------------------------|
 
More sliding and noise.

D|---------------------------------------------------------------------------|
A|---------------------------------------------------------------------------|
F|---------------------------------------------------------------------------|
C|------------------8--7--5--------------------------------------------------|
G|---0-1-0-1-2-3-4--8--7----8-7----------------------------------------------|
C|-6----------------8--7-----------------------------------------------------|

Chorus:
D|---------------------------------------------------------------------------|
A|---------------------------------------------------------------------------|
F|---------------------------------------------------------------------------|
C|-7--------3------2--------7--------3------2--------------------------------|
G|-5-(x16)--1-(x8)-0-(x8)---5-(x16)--1-(x8)-0-(x8)---------------------------|
C|---------------------------------------------------------------------------|

D|---------------------------------------------------------------------------|
A|---------------------------------------------------------------------------|
F|---------------------------------------------------------------------------|
C|-7-7-7-7-7---7-7-7-7-7---3--3--3--3----7-7-7-7-7-7-7-7---------------------|
G|-5-5-5-5-5---5-5-5-5-5---3--3--3--3----7-7-7-7-7-7-7-7---------------------|
C|-------------------------3--3--3--3----7-7-7-7-7-7-7-7---------------------|

D|---------------------------------------------------------------------------|
A|---------------------------------------------------------------------------|
F|---------------------------------------------------------------------------|
C|-7-7-7\----7-7-7\---3--3--3--3----7-7-7-7-7-7-7-7--------------------------|
G|-5-5-5\----5-5-5\---3--3--3--3----7-7-7-7-7-7-7-7--------------------------|
C|--------------------3--3--3--3----7-7-7-7-7-7-7-7--------------------------|

Post Chorus 1:
D|---------------------------------------0-----------------------------------|
A|---------------------------------------0-----------------------------------|
F|---------------------------------------0-------------------2-1-2-3-2-------|
C|-7-7-7-------------7-7-7-----------------3-3-3-5-3--2-2-2------------------|
G|-5-5-5--8-7-6-5-4--5-5-5--5-8-5-4-3-2----1-1-1-3-1--0-0-0------------------|
C|---------------------------------------------------------------------------|

Verse 2, Part A:
D|-0-0-----5-----5---8/10------------0--------5-----5---8/10------------0----|
A|-0-0-------6-----6------8\6---6----5----------6-----6------8\6---6----5----|
F|-0-0---7-----7--------------7---7--7------7-----7--------------7---7--7----|
C|---------------------------------------------------------------------------|
G|---------------------------------------------------------------------------|
C|---------------------------------------------------------------------------|

D|----5-----5---8/10------------0-------------5-----5---8/10-----------------|
A|------6-----6------8\6---6----5---------------6-----6------8\6---6---5-----|
F|--7-----7--------------7---7--7-----------7-----7--------------7---7-------|
C|---------------------------------------------------------------------------|
G|---------------------------------------------------------------------------|
C|---------------------------------------------------------------------------|

Slides and noise!

Verse 2, Part B:
D|---------------------------------------------------------------------------|
A|---------------------------------------------------------------------------|
F|--------9-10-9-------------------------------------------------------------|
C|-7-9-10-7-8--7-10-9---7-9-10--------10-9-----------------------------------|
G|-5-7-8---------8--7---5-7-8--7-8-7--8--7-----------------------------------|
C|-----------------------------7-8-7-----------------------------------------|

Slides and noise.

D|---------------------------------------------------------------------------|
A|----------2/---------------------------------------------------------------|
F|----------1/---------------------------------------------------------------|
C|-8--7\---------------------------------------------------------------------|
G|-8--7\---------------------------------------------------------------------|
C|-8--7\---------------------------------------------------------------------|

Chorus

Bridge
D|---------------------------------------------------------------------------|
A|---------------------------------------------------------------------------|
F|---------------------------------------------------------------------------|
C|-7-------6-------5-------5--------------------------------2----------------|
G|-5-(x16)-4-(x16)-3-(x16)-2-(x16)--5-------3-------2-------0-(x16)----------|
C|----------------------------------5-(x16)-3-(x16)-2-(x16)------------------|

D|---------------------------------------------------------------------------|
A|---------------------------------------------------------------------------|
F|---------------------------------------------------------------------------|
C|-7------6------5------5-----------------------------2----------------------|
G|-5-(x8)-4-(x8)-3-(x8)-2-(x8)--5------3------2-------0-(x8)-----------------|
C|------------------------------5-(x8)-3-(x8)-2-(x8)-------------------------|

D|---------------------------------------------------------------------------|
A|---------------------------------------------------------------------------|
F|---------------------------------------------------------------------------|
C|-7------6------5------5----------------------------------------------------|
G|-5-(x4)-4-(x4)-3-(x4)-2-(x4)--5-------7------------------------------------|
C|------------------------------5-(x16)-7-(x16)------------------------------|

Chorus

Intro

Outro:
D|---------------------------------------------------------------------------|
A|---15--10------------------------------------------------------------------|
F|-----------7---------------------------------------------------------------|
C|---12--7-------7---0-------------------------------------------------------|
G|-----------5---7---0-------------------------------------------------------|
C|---------------7---0-------------------------------------------------------|


| /  slide up
| \  slide down
| h  hammer-on
| p  pull-off
| ~  vibrato
| +  harmonic
| x  Mute note
===============================================================================
Tap to rate this tab
# A B C D E F G H I J K L M N O P Q R S T U V W X Y Z