Song name
# A B C D E F G H I J K L M N O P Q R S T U V W X Y Z

The Venetia Fair - The Animals Tent tab

INTRO (PLAY 2X)
D|--14--14--14--14--14--------------------------|
A|--15--15--15--15--15--17-15-14----------------|
F|--16--16--16--16--16-----------16-15-16-------|
C|----------------------------------------------|
G|----------------------------------------------|
C|----------------------------------------------|

D|--12--12--12------------14--14--14-/-18-------|
A|--12--12--12--15-14-15--15--15--15-/-19-------|
F|--12--12--12------------14--14--14-/-18-------|
C|----------------------------------------------|
G|----------------------------------------------|
C|----------------------------------------------|

VERSE1 (REPEAT 3X):
D|--2-2-2-2-2---------------0-0-0---------2-2-2/6---|
A|--3-3-3-3-3--5-3-2--------0-0-0--3-2-3--3-3-3/7---|
F|--4-4-4-4-4--------4-3-4--0-0-0---------2-2-2/6---|
C|--------------------------------------------------|
G|--------------------------------------------------|
C|--------------------------------------------------|

END OF VERSE1:
D|--2-2-2-2-2---------------0-0-0---------------------------------|
A|--3-3-3-3-3--5-3-2--------0-0-0--3-2-3--------3-------3---------|
F|--4-4-4-4-4--------4-3-4--0-0-0---------2---2---2---2---2-------|
C|------------------------------------------4-------4-------4-----|
G|----------------------------------------------------------------|
C|----------------------------------------------------------------|

PRECHORUS1:
D|---------------------------------------------------------|
A|---------------------------------------------------------|
F|---------------------------------------------------------|
C|----2-2-2-4-2-------------------2-2-2-4-2---6-7-6--------|
G|--2-----------5-1-1-1-1-5-4-1-2-----------5-4-5-4-6-7-8--|
C|--------------------------------------------------6-7-8--|
The next 3 repetitions are variations of this riff. You should be able to figure it 
it's pretty straightforward.

CHORUS1
D|-----------------------------------------------------------------------------|
A|----------------------------------7------9-----------------------------------|
F|-----------------------------------------------------------------------------|
C|-4---------------4----------------5-(x8)--7-(x8)--4------4-2-0---------------|
G|-2-(x12)-2-1-0-1--2-(x12)--2-1-0-1----------------2-(x8)---------4-2-0-------|
C|---------------------------------------------------------------------5-------|

PLAY VERSE1

PRECHORUS2:
D|---------------------------+7------------|
A|---------------------------+7------------|
F|---------------------------+7------------|
C|----4---4--------------------------------|
G|--5---4---2-0----------------------------|
C|--------------5-4-4----------------------|
Right before the chorus I strum the 7th fret harmonic on the top three strings.

CHORUS2
D|-----------------------------------------------------------------------|
A|----------------------------------7------9-----------------------------|
F|-----------------------------------------------------------------------|
C|-4---------------4----------------5-(x8)--7-(x8)--4------4-2-0---------|
G|-2-(x12)-2-1-0-1--2-(x12)--2-1-0-1----------------2-(x8)---------+4----|
C|-----------------------------------------------------------------------|

D|----------------------------------------------------------------------------|
A|----------------------------------7------9----------------------------------|
F|---------------------------------------------------------------2-2-3-3------|
C|-4---------------4----------------5-(x8)--7-(x8)--4------4-4-5-5------------|
G|-2-(x12)-2-1-0-1--2-(x12)--2-1-0-1----------------2-(x8)--------------------|
C|----------------------------------------------------------------------------|

BRIDGE:
Literally play WHATEVER you want for 6 measures. Then slide up for a full 2 
measures at the end. Then:
D|-----------------------------|
A|-----------------------------|
F|-----------------------------|
C|--------3-3-4--------3-------|
G|--4-----1-1-2-----4--1-------|
C|--4---------------4----------|

This part sucks because you're playing two parts at once. Just choose one. Like, whatever.
D|--------14-14-15-15--------14-14-15-15--------|
A|--12-12-12-12-12-12--12-12-12-12-12-12--------|
F|----------------------------------------------|
C|---9--9--9--9--9--9---9--9--9--9--9--9--------|
G|----------------------------------------------|
C|----------------------------------------------|

D|-----------------------------------|
A|--11-11-11-11-11--8-10--7----------|
F|---------6--9--7-------------------|
C|---8--8--8--8--8--8--8--8--8-------|
G|-----------------------------------|
C|-----------------------------------|

D|--------14-14-15-15--------14-14-15-15--------|
A|--12-12-12-12-12-12--12-12-12-12-12-12--------|
F|----------------------------------------------|
C|---9--9--9--9--9--9---9--9--9--9--9--9--------|
G|----------------------------------------------|
C|----------------------------------------------|

D|---------------------------------|
A|--11-11-11-11-11--7-7-7-7--------|
F|---------6--9--7-----------------|
C|---8--8--8--8--8-----------2-----|
G|---------------------------1-----|
C|---------------------------------|

D|-------------------------------|
A|-------------------------------|
F|--4-------3--------------------|
C|--4-------4--------------------|
G|--2-(x16)--1-(x16)-------------|
C|-------------------------------|
Play this for awhile while the keys and bass go nuts then:

PLAY CHORUS2

CHORUS3:
D|---------------2/14-14-14-14-14---------------15--18--21--------------------|
A|---------------3/15-15-15-15-15---------------15--18--21--7-----9-----------|
F|---------------4/16-16-16-16-16---------------15--18--21--------------------|
C|--4-4-4-4-4-4--------------------4-4-4-4-4-4--------------5-(x8)-7-(x8)-----|
G|--2-2-2-2-2-2--------------------2-2-2-2-2-2--------------------------------|
C|----------------------------------------------------------------------------|

OUTRO:
D|---------------------------------------------(slide up)------|
A|--10---------------------------------------------------------|
F|------------------2-2-3-3------------------------------------|
C|--8(x12)---4-4-5-5---------4-6-7--0-2-4-4-5-4----------------|
G|--------------------------2-4-5------------------------------|
C|-------------------------------------------------------------|
Tap to rate this tab
 
# A B C D E F G H I J K L M N O P Q R S T U V W X Y Z