The Venetia Fair - Nonus The Hobo tab

To clear up any confusion, Nonus The Hobo is the transition from The Ringleader into The 
Tent. It is technically on track 5 but it is not the same song as The Ringleader. 
narrators- DUH! I know it's pretty short but I had a request for it so here you go!

D|------------------------4------3------------------------|
A|------2-----2-----2-----6------5------2------1----------|
F|------3-----3-----3-----6------5------3------2----------|
C|--------------------------------------------------------|
G|--1------------1-----4------3--------------------2--0---|
C|---------3-------------------------4------3-------------|

D|--------------------------0---0---0---0----2---2---2---2--|
A|-----2----2----2-----2----2---2---2---2----3---3---3---3--|
F|-----3----3----3-----3----3---3---3---3-------------------|
C|------------------1-----2---2---2---2----4---4---4---4----|
G|--1----3----4---------------------------------------------|
C|----------------------------------------------------------|

D|-----2-----2------2-------------------------------|
A|-----3-----3------3-------------------------------|
F|--------------------------------------------------|
C|--4-----2------0----------------------------------|
G|----------------------4------2--------------------|
C|--------------------------------------------------|
Tap to rate this tab
 
# A B C D E F G H I J K L M N O P Q R S T U V W X Y Z