Song name
# A B C D E F G H I J K L M N O P Q R S T U V W X Y Z

The Venetia Fair - Because Youre Lonely tab

-------------------------------------------------------------------------------
			     BECAUSE YOU'RE LONELY - The Venetia Fair
-------------------------------------------------------------------------------
Tabbed by: Mr. Chark
Email: charktvf@gmail.com

Tuning: Drop C

VERSE1: "...they came to his room just to..."
D|--7-----7-----8p7-------8-8/10\8-------6-----6-6---------7-7/9\7-----------|
A|----7-----7-------8---8--------------5-----5-----7-5---7-------------------|
F|------7-----7-------9-------------/6-----6-----------7---------------------|
c|---------------------------------------------------------------------------|
G|---------------------------------------------------------------------------|
C|---------------------------------------------------------------------------|

D|--7-----7-----8p7-------8-8/10\8-------6-----6-6-----7-7-7-----------------|
A|----7-----7-------8---8---8/10\8-----5-----5-----7-5-----------------------|
F|------7-----7-------9-------------/6-----6-----------------/11-9-7---------|
c|-------------------------------------------------------------------/11-----|
G|---------------------------------------------------------------------------|
C|---------------------------------------------------------------------------|

D|---------------------------------------------------------------------------|
A|---------------------------------------------------------------------------|
F|---------------------------------------------------------------------------|
c|--9--7--------4--2---------------------------------------------------------|
G|--------7--5--2--1---------------------------------------------------------|
C|-----------5---------------------------------------------------------------|

CHORUS: "...and then she fucked me..."
(It's pretty basic strumming so I'm just going to tab out the chords. 
You can figure out their durations, I promise!)
D|------------------------------0--------------------------------------------|
A|------------------------------0--------------------------------------------|
F|------4---7---2-------4---7---6--------------------------------------------|
c|--5---4---7---2---5---4---7---6---4---4---4---8----4---2---2-------4---2---|
G|--5---2---5---0---5---2---5---4---4---5---7---4----2---1---0---5---2---1---|
C|--5---------------5---------------4---4---4---4----------------5-----------|

VERSE2: 
D|-------------------------7h8h9h10p9p8p7------------------------------------|
A|----------12---9--10-12----------------------------------------------------|
F|---------------------------------------------------------------------------|
c|--------/-9----7--8--9-----------------------------------------------------|
G|--4-----/--------------------------------9--9-9---9-9-9-9-9-9-10-10--10----|
C|--2-----/--------------------------------9--9-9---9-9-9-9-9-9-10-10--10----|

D|---------------------------------------------------------------------------|
A|---------------------------------------------------------------------------|
F|---------------------------------------------------------------------------|
c|---------------------------------------------------------------------------|
G|--8-8-8-8-8-8-8-8--8--8--8---8-8-9\----------------------------------------|
C|--8-8-8-8-8-8-8-8--8--8--8---8-8-9\----------------------------------------|

D|---------------------------------------------------------------------------|
A|---------------------------------------------------------------------------|
F|---------------------------------------------------------------------------|
c|---------------------------------------------------------------------------|
G|--(9--9-9-9-9-9-9-9--10-10-10-10-10-10-10-10)--8-8-8-8-8-8-8-8-9\----------|
C|--(9--9-9-9-9-9-9-9--10-10-10-10-10-10-10-10)--8-8-8-8-8-8-8-8-9\----------|

On the 4& upstroke all the strings open and then push on the back of the 
headstock to bend the entire neck. Or if you have a floating bridge I guess 
you could do it that way too but floating bridges are kind of for pussies.

CHORUS

"...oh she's gifted. she sucked the marrow..."
D|---------------------------------------------------------------------------------|
A|-----------------------------------/15-------14-------12-------------------------|
F|--/7-----6-----4-----------------------11-11----11-11----14-12-11----11-12-14-11-|
c|-----4-4---4-4---7-5-4---4-5-7-4----------------------------------14-------------|
G|-----------------------7---------------------------------------------------------|
C|---------------------------------------------------------------------------------|

repeat that a few times, then the ending changes to:
D|--------------------------------14-----------------------------------------|
A|--15-------14-------11h12-14/15--------------------------------------------|
F|-----11-11----11-11--------------------------------------------------------|
c|---------------------------------------------------------------------------|
G|---------------------------------------------------------------------------|
C|---------------------------------------------------------------------------|

"...tears..."
D|---------------------------------------------------------------------------|
A|--7-7-7-7-7-7--------------------------------------------------------------|
F|------------------------------4-----4------------------4-----4-4-----------|
c|--4-4-4-4-4-4-4-4-4---------4-----4---3/6------------4-----4---4-----------|
G|--------------------4-4-1-2-----2-----1/4-4--4--4--2-----2-----2-----------|
C|------------------------------------------4--4--4--------------------------|

"...and this is where we should have stayed.."
D|---------------------------------------------------------------------------|
A|---------------------------------------------------------------------------|
F|-----4--2-----4------------------------------------------------------------|
c|--5--4--2--5--4--2---------------------------------------------------------|
G|--5--2--0--5--2--1---------------------------------------------------------|
C|--5--------5---------------------------------------------------------------|

Then play the CHORUS but cut out the last bit (F A Ab(dim))

This next part is the gay part because you play F A G six whole times.
"...you're only doing this because you're lonely..."
D|---------------------------------------------------------------------------|
A|---------------------------------------------------------------------------|
F|-----4--2-----4--2-----4--2-----4--2-----4--2-----4--2------2--4------4----|
c|--5--4--2--5--4--2--5--4--2--5--4--2--5--4--2--5--4--2---5--2--4---5--4--2-|
G|--5--2--0--5--2--0--5--2--0--5--2--0--5--2--0--5--2--0---5--0--2---5--2--1-|
C|--5--------5--------5--------5--------5--------5---------5---------5-------|

"...you don't deserve me..."
D|---------------------------------------------------------------------------|
A|--15-------13-------12-11--------------------------------------------------|
F|-----11-11----11-11-------14-12----11-12-14--------------------------------|
c|--------------------------------14-----------------------------------------|
G|---------------------------------------------------------------------------|
C|---------------------------------------------------------------------------|
repeat 3x

D|--------------------------------14-----------------------------------------|
A|--15-------13-------11h12-14/15--------------------------------------------|
F|-----11-11----11-11--------------------------------------------------------|
c|-------------------------------------4-4-----4-4-----4-----------3/4-------|
G|-------------------------------------2-2-5-4-2-2-5-4-2-0-1-4-----1/2-------|
C|-----------------------------------------5-4-----5-4-----------------------|


************************************

| ()  palm-mute whatever is inside
| /   slide up
| \   slide down
| h   hammer-on
| p   pull-off
| ~   vibrato
| +   harmonic
| x   Mute note
| b   Bend
| pb  Pre-bend
| br  Bend release
| pbr Pre-bend release
| brb Bend release bend

************************************
Tap to rate this tab
 
# A B C D E F G H I J K L M N O P Q R S T U V W X Y Z