The Venetia Fair - Its Unbelievable To Me tab

-------------------------------------------------------------------------------
			     IT'S UNBELIEVABLE TO ME - The Venetia Fair
-------------------------------------------------------------------------------
Tabbed by: Mr. Chark
Email: charktvf@gmail.com

Tuning: Drop C

"...you're tellin' yourself to take nothin'..."
D|--5--5--5--5--5--5--5--5--5--5--5--5--5--5--5--5---------------------------|
A|--6--6--6--6--6--6--6--6--6--6--6--6--6--6--6--6---------------------------|
F|--7--7--7--7--7--7--7--7--6--6--6--6--6--6--6--6---------------------------|
c|---------------------------------------------------------------------------|
G|---------------------------------------------------------------------------|
C|---------------------------------------------------------------------------|

"...you're tellin' yourself that it's nothin'..." (repeat this part 4 times)
D|--------5-5-------5-5-------5-5--------5-5---------------------------------|
A|--------6-6-------6-6-------6-6--------6-6---------------------------------|
F|--------7-7-------7-7-------7-7--------7-7---------------------------------|
c|--(0-0)-----(0-0)-----(0-0)------(0-0)-------------------------------------|
G|---------------------------------------------------------------------------|
C|---------------------------------------------------------------------------|

"...you're tellin' yourself that she's worth it..." (repeat this part
D|---------8----10-----------------------------------------------------------|
A|----10-8---10----10-11-10-8------------------------------------------------|
F|--7-------------------------10---------------------------------------------|
c|---------------------------------------------------------------------------|
G|---------------------------------------------------------------------------|
C|---------------------------------------------------------------------------|

long slide down for "...cuz everything taken will break in your hands..." 
then put your slide on and get ready to ROCK!

D|------------8----10--------------------------------------------------------|
A|------10\8----8/-----10/11\10----------------------------------------------|
F|--/7--------------------------10\------------------------------------------|
c|---------------------------------------------------------------------------|
G|---------------------------------------------------------------------------|
C|---------------------------------------------------------------------------|

Rhythm guitar part during the slide part uses this basic progression with
minor variations in rhythm each time:
D|---------------------------------------------------------------------------|
A|---------------------------------------------------------------------------|
F|---------------------------------------------------------------------------|
c|--7-5-5-5--5-5--10--9------------------------------------------------------|
G|--5-5-5-5--3-3--8---7------------------------------------------------------|
C|---------------------------------------------------------------------------|

D|--------10--------------------------------------10-------------------------|
A|-----------10--------------------------------------10----------------------|
F|--------------10\7~---8\7/8\7-------------------------10\7--8\7/8\7--------|
c|--0-----------------------------xx-xx-xx-xx-0------------------------------|
G|--0-----------------------------xx-xx-xx-xx-0------------------------------|
C|--0-----------------------------xx-xx-xx-xx-0------------------------------|


"...And as we..."
D|---------------------------------------------------------------------------|
A|---------------------------------------------------------------------------|
F|-3-3-3-3--3-3-3-3--3-3-3-3--5-5-5-5----------------------------------------|
c|-3-3-3-3--3-3-3-3--3-3-3-3--5-5-5-5--0-0-0-0--0-0-0-0----------------------|
G|-1-1-1-1--1-1-1-1--1-1-1-1--3-3-3-3--0-0-0-0--0-0-0-0----------------------|
C|-------------------------------------0-0-0-0--0-0-0-0----------------------|

D|---------------------------------------------------------------------------|
A|---------------------------------------------------------------------------|
F|------------------------7--------------------------------------------------|
c|--------5-7-8-------5-8----------------------------------------------------|
G|--5-7-8-------5-7-8--------------------------------------------------------|
C|---------------------------------------------------------------------------|

D|---------------------------------------------------------------------------|
A|---------------------------------------------------------------------------|
F|--5-5-5-5--5-5-5-5--5-5-5-5--5-5-5-5---------------------------------------|
c|--5-5-5-5--5-5-5-5--5-5-5-5--5-5-5-5--0-0-0-0--0-0-0-0---------------------|
G|--3-3-3-3--3-3-3-3--3-3-3-3--3-3-3-3--0-0-0-0--0-0-0-0---------------------|
C|--------------------------------------0-0-0-0--0-0-0-0---------------------|

D|---------------------------------------------------------------------------|
A|---------------------------------------------------------------------------|
F|------------------------7--------------------------------------------------|
c|--------5-7-8-------5-8----------------------------------------------------|
G|--5-7-8-------5-7-8--------------------------------------------------------|
C|---------------------------------------------------------------------------|
repeat

VERSE
D|--5-5-5--5-5--5-5-5--5-5--6-6-6--6-6--6-6-6--6-6--8--8--8---8--8-----------|
A|--6-6-6--6-6--6-6-6--6-6--8-8-8--8-8--8-8-8--8-8--10-10-10--10-10----------|
F|--7-7-7--7-7--7-7-7--7-7--7-7-7--7-7--7-7-7--7-7--10-10-10--10-10----------|
c|---------------------------------------------------------------------------|
G|---------------------------------------------------------------------------|
C|---------------------------------------------------------------------------|

D|--7--7--7---7--7---7-7-7--7-7--6-6-6--6-6----------------------------------|
A|--10-10-10--10-10--9-9-9--9-9--8-8-8--8-8----------------------------------|
F|--10-10-10--10-10--9-9-9--9-9--7-7-7--7-7----------------------------------|
c|---------------------------------------------------------------------------|
G|---------------------------------------------------------------------------|
C|---------------------------------------------------------------------------|
repeat

PRECHORUS
D|---------------------------------------------------------------------------|
A|---------------------------------------------------------------------------|
F|---------------------------------------------------------------------------|
c|------------------------------------------12\------12-12-------------------|
G|--12-12-12-12--------8--------------------12\------12-12-------------------|
C|--12-12-12-12--10-12----12-10-12-10-12-10-12\------12-12-------------------|

D|---------------------------------------------------------------------------|
A|---------------------------------------------------------------------------|
F|---------------------------------------------------------------------------|
c|--7-7-----3-----------3-----------3-----------3----------------------------|
G|--5-5-3-5---3-5-5-3-5---3-5-5-3-5---3-5-5-3-5---5\-------------------------|
C|---------------------------------------------------------------------------|

D|---------------------------------------------------------------------------|
A|---------------------------------------------------------------------------|
F|---------------------------------------------------------------------------|
c|--7-7-----3-------------3-------------3------(7-7-7-7-7-7-7-7-7)-----------|
G|--5-5-3-5---5-3-5-5-3-5---5-3-5-5-3-5---5-3--(5-5-5-5-5-5-5-5-5)-----------|
C|---------------------------------------------------------------------------|

CHORUS
D|---------------------------------------------------------------------------|
A|---------------------------------------------------------------------------|
F|---------------------------------------------------------------------------|
c|--7-7---------------5-5-5-5------5h7p5---7-7--------------5-5-5-5----------|
G|--5-5--3h5-3-3-3-3--3-3-3-3--5-5-------8-5-5--3h5-3-3-3-3-3-3-3-3-5-5-5-5--|
C|-----------3-3-3-3-----------5-5------------------3-3-3-3---------5-5-5-5--|

D|---------------------------------------------------------------------------|
A|---------------------------------------------------------------------------|
F|---------------------------------------------------------------------------|
c|--7-7-7-7--------------5-5-5-5----------7-7-7-7-------------5-5-5-5--------|
G|--5-5-5-5-3h5-3-3-3-3--3-3-3-3-5-5-5-5--5-5-5-5-3h5-3-3-3-3-3-3-3-3-5/7-0--|
C|--------------3-3-3-3----------5-5-5-5--------------3-3-3-3---------5/7-0--|

POST CHORUS
D|---------------------------------------------------------------------------|
A|---------------------------------------------------------------------------|
F|----------------------------------------7----------------------------------|
c|-----------7-7-7-7--------5-7-8-------5------------------------------------|
G|--0-0-0-0--5-5-5-5--5-7-8-------5-7-8--------------------------------------|
C|--0-0-0-0------------------------------------------------------------------|

VERSE
D|--5-5-5--5-5--5-5-5--5-5--6-6-6--6-6--6-6-6--6-6---------------------------|
A|--6-6-6--6-6--6-6-6--6-6--8-8-8--8-8--8-8-8--8-8---------------------------|
F|--7-7-7--7-7--7-7-7--7-7--7-7-7--7-7--7-7-7--7-7---------------------------|
c|---------------------------------------------------------------------------|
G|---------------------------------------------------------------------------|
C|---------------------------------------------------------------------------|

D|-----------8------------8------------7------------7------------------------|
A|-----------10-----------10-----------10-----------10-----------------------|
F|-----------10-----------10-----------10-----------10-----------------------|
c|-(0-0-0-0)----(0-0-0-0)----(0-0-0-0)----(0-0-0-0)--------------------------|
G|---------------------------------------------------------------------------|
C|---------------------------------------------------------------------------|

D|------------7------------7-------------7-----------7-----------------------|
A|------------9------------9-------------8-----------8-----------------------|
F|------------9------------9-------------6-----------6-----------------------|
c|--(0-0-0-0)----(0-0-0-0)----(0-0-0-0)----(0-0-0-0)-------------------------|
G|---------------------------------------------------------------------------|
C|---------------------------------------------------------------------------|
repeat

D|---------------------------------------------------------------------------|
A|---------------------------------------------------------------------------|
F|---------------------------------------------------------------------------|
c|--7-7-7-7---(7-7--7-7--7-7-7-7-7-7-7-7-7-7-7-7-7-7-7-7)--------------------|
G|--5-5-5-5---(5-5--5-5--5-5-5-5-5-5-5-5-5-5-5-5-5-5-5-5)--------------------|
C|---------------------------------------------------------------------------|

CHORUS

BRIDGE:
D|---------------------------------------------------------------------------|
A|---------------------------------------------------------------------------|
F|--7-7-7-7-7-7-7-7----------------------------------------------------------|
c|-----------------------------3--3-------/---/---/-----3---3----------------|
G|--5-5-5-5-5-5-5-5--0-0-0-0--------3-----/---/---/-----------3--------------|
C|-------------------0-0-0-0----------3---/---/---/-------------3------------|

D|-----------------------------------------------------------------------15--|
A|--10-10-10-10--10-10-10-10--10-10-10-10------------------------------------|
F|-----------------------------------------7-7-7-7---------------------------|
c|--7--7--7--7---7--7--7--7---7--7--7--7------------------------------5/-----|
G|-----------------------------------------5-5-5-5--0-0-0-0--0-0-0-0--3/-----|
C|--------------------------------------------------0-0-0-0--0-0-0-0---------|


"...dear the people of earth..."
D|---------------------------------------------------------------------------|
A|---------------------------------------------------------------------------|
F|---------------------------------------------------------------------------|
c|---------5h7h8-------------------------------------------------------------|
G|---5h7h8-------------------------------------------------------------------|
C|---------------------------------------------------------------------------|
repeat until 

D|---------------------------------------------------------------------------|
A|---------------------------------------------------------------------------|
F|--7-7-7-7--7-7-7-7---------------------------------------------------------|
c|---------------------------------------------------------------------------|
G|--5-5-5-5--5-5-5-5---(8-7-5-7-5-3)-0---------------------------------------|
C|---------------------(8-7-5-7-5-3)-0---------------------------------------|


************************************

| ()  palm-mute whatever is inside
| /   slide up
| \   slide down
| h   hammer-on
| p   pull-off
| ~   vibrato
| +   harmonic
| x   Mute note
| b   Bend
| pb  Pre-bend
| br  Bend release
| pbr Pre-bend release
| brb Bend release bend

************************************
Tap to rate this tab
 
# A B C D E F G H I J K L M N O P Q R S T U V W X Y Z