Guitaretab - guitar tabs
Song name
# A B C D E F G H I J K L M N O P Q R S T U V W X Y Z

The Veronicas - Untoched tab

UNTOCHED THE VERONICAS
TABBED BY eldoplaysguitar

intro synthesised
e-55---444-55---555-44---444-22---44-5--|
B---------------------------------------|
G---------------------------------------|
D---------------------------------------|
A---------------------------------------|
E---------------------------------------|
verse
e--45-45-4--45-45-4--45-45-4--45-45-|
B-3--------2--------5--------3------|
G-----------------------------------|
D-----------------------------------|
A-----------------------------------|
E-----------------------------------|
chorus
e--------------------------------------------------|
B--------------------------------------------------|
G--------------------------------------------------|
D-7-7-6--77-6-7-7-6--77-6-9--9-9-9-999-777777-99-7-|x2
A-7-7-6--77-6-7-7-6--77-6-9--9-9-9-999-777777-99-7-|
E-5-5-4--55-4-5-5-4--55-4-7--7-7-7-777-555555-77-5-|

e-55---444-55---555-44---444-22---44-5--|
B---------------------------------------|
G---------------------------------------|
D---------------------------------------|
A---------------------------------------|
E---------------------------------------|
[ Tab from: http://www.guitaretab.com/t/the-veronicas/106088.html ]
e---------------------------------------------------|
B---------------------------------------------------|
G---------------------------------------------------|
D---------------------------------------------------|
A-7777777777---6666666666---9999999999---7777777777-|
E-5555555555x2-4444444444x2-7777777777x2-5555555555-|
pm
verse
e--45-45-4--45-45-4--45-45-4--45-45-|
B-3--------2--------5--------3------|
G-----------------------------------|
D-----------------------------------|
A-----------------------------------|
E-----------------------------------|

chorus
e--------------------------------------------------|
B--------------------------------------------------|
G--------------------------------------------------|
D-7-7-6--77-6-7-7-6--77-6-9--9-9-9-999-777777-99-7-|
A-7-7-6--77-6-7-7-6--77-6-9--9-9-9-999-777777-99-7-|
E-5-5-4--55-4-5-5-4--55-4-7--7-7-7-777-555555-77-5-|

e-55---444-55---555-44---444-22---44-5--|
B---------------------------------------|
G---------------------------------------|
D---------------------------------------|
A---------------------------------------|
E---------------------------------------|

play the verse and chorus a couple more times
they differ slightly but not majorly enjoy:)
Related for Untoched tab
Advertisement will be closed in 10 seconds