Song name
# A B C D E F G H I J K L M N O P Q R S T U V W X Y Z

The Veronicas - Take Me On The Floor tab

The Veronicas
Take Me On The Floor
Submitted by: kaluss@onet.eu

Video how I play this: http://pl.youtube.com/watch?v=RdB6H3rrk50

Tuning: Standard EADGBe



Intro and verse:


e ------------------------------------------------------------------------------------------------|
B ------------------------------------------------------------------------------------------------|
G --9-----9---9-9--9-------9-----9---9-9--9--------12-----12---12-12--12-------16------16---16-16-|
D ------------------------------------------------------------------------------------------------|
A 7---7-7---7-----7--7---7---7-7---7-----7--7---10---10-10---10-----10--10---14---14-14---14------|
E ------------------------------------------------------------------------------------------------|
  x2



Chorus:


e ---------------------------------------------------------------------------------------|
B ---------------------------------------------------------------------------------------|
G -4-4-2-2-5-5-5-4--4-4-4-4--4-4-2-2-5-5-5-4--4-4-4-4------------------------------------|  x2
D -4-4-2-2-5-5-5-4--4-4-4-4--4-4-2-2-5-5-5-4--4-4-4-4--9-9-9-7-7-7-5-5-5-5-5-4-4-4-4-4-4-|
A -2-2-0-0-3-3-3-2--2-2-2-2--2-2-0-0-3-3-3-2--2-2-2-2--9-9-9-7-7-7-5-5-5-5-5-4-4-4-4-4-4-|
E -----------------------------------------------------7-7-7-5-5-5-3-3-3-3-3-2-2-2-2-2-2-|


Verse 2:


e --------------------------------------------|
B --------------------------------------------|
G -------------------------111111111111111111-|
D -999999999-12121212121212-9-9-9-9-9-9-9-9-9-|  x2
A -777777777-10101010101010-------------------|
E --------------------------------------------|


Chorus


Bridge:


e ---------------|
B ---------------|
G -55-44-99-9999-|
D -55-44-99-9999-| x8
A -33-22-77-7777-|
E ---------------|


Chorus

Please Rate and Comment! :)
Tap to rate this tab
 
# A B C D E F G H I J K L M N O P Q R S T U V W X Y Z