Song name
# A B C D E F G H I J K L M N O P Q R S T U V W X Y Z

The Veronicas - The First Kiss tab

The Veronicas
The First Kiss
Hook Me Up
2007
Submitted by: paramore_fans@yahoo.com

Key: D

Tuning: Standard EADGBe

Chords used:
D -   xx0232
A -   x02220
Bm -  x24432
Em -  022000
F#m - 244222
G -   320033
C -   x32010


Instrumental:
         D             G     D     D       
  F#m
e|-2h3-5----0h2----|-2h3-5-|---|-2h3-5-|---0h2-|----|
B|--------3--------|-------|-3-|-------|-3-----|-2--|
G|---------------2-|-------|---|-------|-------|----|
D|-----------------|-------|---|-------|-------|----|
A|-----------------|-------|---|-------|-------|----|
E|-----------------|-------|---|-------|-------|----|

     G     D          G           D      G  
     Em      A
e|-2h3-5-|---|-10-9-10---12--14-|-5-|-10-9-10-|-12--14-|-12-|
B|-------|-3-|------------------|---|---------|--------|----|
G|-------|---|------------------|---|---------|--------|----|
D|-------|---|------------------|---|---------|--------|----|
A|-------|---|------------------|---|---------|--------|----|
E|-------|---|------------------|---|---------|--------|----|


      D          Bm      F#m       G       
     Bm       A     G
e|-14h15-17-|----12-14-|-----|--14h15-17-|-10-|-7-9-10-|--9----|-7-|
B|----------|-15-------|-14--|-----------|----|--------|-----7-|---|
G|----------|----------|-----|-----------|----|--------|-------|---|
D|----------|----------|-----|-----------|----|--------|-------|---|
A|----------|----------|-----|-----------|----|--------|-------|---|
E|----------|----------|-----|-----------|----|--------|-------|---|

    Em      Bm    C    A       D      
   F#m    G     D     G     D
e|-0h2-3-|-2----|-0-|------|-2h3-5-|---0h2-|----|2h3-5-|---|-2h3-5-|---|
B|-------|----0-|---|-3--2-|-------|-3-----|-2--|------|-3-|-------|-3-|
G|-------|------|---|------|-------|-------|----|------|---|-------|---|
D|-------|------|---|------|-------|-------|----|------|---|-------|---|
A|-------|------|---|------|-------|-------|----|------|---|-------|---|
E|-------|------|---|------|-------|-------|----|------|---|-------|---|
Tap to rate this tab
 
# A B C D E F G H I J K L M N O P Q R S T U V W X Y Z