Song name
# A B C D E F G H I J K L M N O P Q R S T U V W X Y Z

The Veronicas - Were Not Gonna Take It tab

WERE NOT GONNA TAKE IT

Solo
(2:16)
e|-------------------------------------------------|
B|--7s9---9-9s11-----------11b13-11-13-13s15-------|
G|------7--------7-7-777---------------------15-15-|
D|-------------------------------------------------|
A|-------------------------------------------------|
E|-------------------------------------------------|

e|-----------------10-----------8-------------------|
B|-----------10s12----10-8-8s10---8-7-8~~~~---------|
G|--151515------------------------------------------|
D|--------------------------------------------------|
A|--------------------------------------------------|
E|--------------------------------------------------|

(2:29)
e|--------------------------------------------------|
B|--7s9---9-9s11-----------11b13-11-13-13s15--------|
G|------7--------7-7-777---------------------15-15--|
D|--------------------------------------------------|
A|--------------------------------------------------|
E|--------------------------------------------------|

e|-----------------10-----------8-------------------|
B|-----------10s12----10-8-8s10---8-7--5~-4~-3~-1~--|
G|--151515------------------------------------------|
D|--------------------------------------------------|
A|--------------------------------------------------|
E|--------------------------------------------------|

Just wanna say hi to Klaren!!! 
From Jeff :)
Tap to rate this tab
 
# A B C D E F G H I J K L M N O P Q R S T U V W X Y Z