Song name
# A B C D E F G H I J K L M N O P Q R S T U V W X Y Z

The Veronicas - Untouched Acoustic tab

capo 1

Intro

e --2223`--2223`--3332`--2220`--00000--|
B --3333`--3333`--3333`--3333`--33333--|
G --0000`--0000`--0000`--0000`--00000--|
D --0000`--0000`--0000`--0000`--00000--|
A --3333`--3333`--3333`--3333`--33333--|
E --0000`--0000`--0000`--0000`--00000--|


e --222-333333-222222222-00000000000--------|
B --333-333333-333333333-33333333333--------|
G --000-000000-000000000-00000000000-5-4-2--|
D --000-000000-000000000-00000000000-5-4-2-5|
A --333-333333-333333333-33333333333-3-2-0-5|
E --000-000000-000000000-00000000000-------3|



Verses

e --------------------------|
B --------------------------|
G --------------777777-55555|
D --77777-55555-777777-55555|
A --77777-55555-555555-33333|
E --55555-33333-------------|

-------------------------------------------|
-------------------------------------------|
-------------------------------------------|
--2-444-5-4-5-4---444-5-4-5-4-4444-5-4-5-4-|
--3-333-3-3-3-3-2-222-2-2-2-2-0000-0-0-0-0-|
--0-000-0-0-0-0-0-000-0-0-0-0-0000-0-0-0-0-|

-------------------------------------------|
-------------------------------------------|
-----------------------------------5-5-2---|
--2-444-5-4-5-4---444-5-4-5-4-4444-5-5-2-5-|
--3-333-3-3-3-3-2-222-2-2-2-2-0000-3-3-0-5-|
--0-000-0-0-0-0-0-000-0-0-0-0-0000-------3-|



Chorus

-----------------------------------------|
-----------------------------------------|
-----------------------------------------|  x2
--55-444-555-55-444-555-77-999-777-55555-|
--33-333-333-55-555-555-55-555-555-33333-|
--xx-xxx-xxx-33-333-333-xx-xxx-xxx-xxxxx-|


Intro

Verse

Chorus

Intro

Chorus x2
Tap to rate this tab
# A B C D E F G H I J K L M N O P Q R S T U V W X Y Z