Guitaretab - guitar tabs
Song name
# A B C D E F G H I J K L M N O P Q R S T U V W X Y Z

The Veronicas - Dont Say Goodbye tab

ďDonít Say GoodbyeĒ- The Veronicas
Note: The strumming pattern is the same for C and Em, I spread them out in the song so 
follows the lyrics. This is based off their live performances, if you want to play the 
recording, skip the last part starting with ďyeahhhhhhĒ.

Capo 1st Fret


Verse1:
             C                           Em
e|----------000000000000--2----0---0----000000000000--|
B|----------111111111111--1----1---0----000000000000--|
G|----------000000000000--0----0---0----000000000000--|
D|----------222222222222--2----2---2----222222222222--|
A|----------333333333333--0----0---0----222222222222--|
E|----------000000000000--0----0---0----000000000000--|
  Iím lying here,         Thinking bout you,

                C                            Em
e|--3---0--0---000000000000--2----0---0----000000000000---|
B|--3---3--0---111111111111--1----1---0----000000000000---|
G|--0---0--0---000000000000--0----0---0----000000000000---|
D|--2---2--0---222222222222--2----2---2----222222222222---|
A|--2---2--2---333333333333--0----0---0----222222222222---|
E|--0---0--0---000000000000--0----0---0----000000000000---|
    No  more   tears,        Fighting for  you,

                  C
e|--3---0--0----0--0--0--0--0--0--0--0--0--0----------2---0------|
B|--3---3--0----1--1--1--1--1--1--1--1--1--1----------1---1------|
G|--0---0--0----0--0--0--0--0--0--0--0--0--0----------0---0------|
D|--2---2--0----2--2--2--2--2--2--2--2--2--2----------2---2------|
A|--2---2--2----3--3--3--3--3--3--3--3--3--3----------0---0------|
E|--0---0--0----0--0--0--0--0--0--0--0--0--0----------0---0------|
             So donít  throw  it   in   my face,   in my face,

                    Em
e|----------------000000000000--|
B|----------------000000000000--|
G|----------------000000000000--|
D|----------------222222222222--|
A|----------------222222222222--|
E|----------------000000000000--|
  I know what  I  did  to  you,

                  C
e|--3---0--0----0--0--0--0--0--0--0--0--0--0-------2---0--0---|
B|--3---3--0----1--1--1--1--1--1--1--1--1--1-------1---1--0---|
G|--0---0--0----0--0--0--0--0--0--0--0--0--0-------0---0--0---|
D|--2---2--0----2--2--2--2--2--2--2--2--2--2-------2---2--2---|
A|--2---2--2----3--3--3--3--3--3--3--3--3--3-------0---0--0---|
E|--0---0--0----0--0--0--0--0--0--0--0--0--0-------0---0--0---|
            And donít make me feel guilty,   keep blaming me,

     Em
e|--0-0-0-0-0-0-0-0-0-0-0-0------3---0--0---|
B|--0-0-0-0-0-0-0-0-0-0-0-0------3---3--0---|
G|--0-0-0-0-0-0-0-0-0-0-0-0------0---0--0---|
D|--2-2-2-2-2-2-2-2-2-2-2-2------2---2--0---|
A|--2-2-2-2-2-2-2-2-2-2-2-2------2---2--2---|
E|--0-0-0-0-0-0-0-0-0-0-0-0------0---0--0---|
  I still      want      you.


Chorus:
              C
e|----------0-0-0-0-0-0-0-0-0-0-0-0----2---0---0---|
B|----------1-1-1-1-1-1-1-1-1-1-1-1----1---1---0---|
G|----------0-0-0-0-0-0-0-0-0-0-0-0----0---0---0---|
D|----------2-2-2-2-2-2-2-2-2-2-2-2----2---2---2---|
A|----------3-3-3-3-3-3-3-3-3-3-3-3----0---0---0---|
E|----------0-0-0-0-0-0-0-0-0-0-0-0----0---0---0---|
            Ooooh     ooooh      ooooh.

             C
e|----------0-0-0-0-0-0-0-0-0-0-0-0---2---|
B|----------1-1-1-1-1-1-1-1-1-1-1-1---1---|
G|----------0-0-0-0-0-0-0-0-0-0-0-0---0---|
D|----------2-2-2-2-2-2-2-2-2-2-2-2---2---|
A|----------3-3-3-3-3-3-3-3-3-3-3-3---0---|
E|----------0-0-0-0-0-0-0-0-0-0-0-0---0---|
            Ooooh     ooooh      ooooh.


Verse 2:
             C                           Em
e|----------000000000000--2----0---0----000000000000--|
B|----------111111111111--1----1---0----000000000000--|
G|----------000000000000--0----0---0----000000000000--|
D|----------222222222222--2----2---2----222222222222--|
A|----------333333333333--0----0---0----222222222222--|
E|----------000000000000--0----0---0----000000000000--|
  All cried out,          Pleading with you,

                C                                 Em
e|--3---0--0---000000000000------2----0---0-----000000000000---|
B|--3---3--0---111111111111------1----1---0-----000000000000---|
G|--0---0--0---000000000000------0----0---0-----000000000000---|
D|--2---2--0---222222222222------2----2---2-----222222222222---|
A|--2---2--2---333333333333------0----0---0-----222222222222---|
E|--0---0--0---000000000000------0----0---0-----000000000000---|
     Iím   dyiní    now,   Donít say that weíre through,

                 C
e|--3---0--0----0--0--0--0--0--0--0--0--0--0------2----0------|
B|--3---3--0----1--1--1--1--1--1--1--1--1--1------1----1------|
G|--0---0--0----0--0--0--0--0--0--0--0--0--0------0----0------|
D|--2---2--0----2--2--2--2--2--2--2--2--2--2------2----2------|
A|--2---2--2----3--3--3--3--3--3--3--3--3--3------0----0------|
E|--0---0--0----0--0--0--0--0--0--0--0--0--0------0----0------|
             Iíd rather youíd  hate  me  than    break me,

            Em
e|--------000000000000--|
B|--------000000000000--|
G|--------000000000000--|
D|--------222222222222--|
A|--------222222222222--|
E|--------000000000000--|
Youíre   all I ever knew,

                   C
e|--3---0--0-----0--0--0--0--0--0--0--0--0--0-------2---0--0------|
B|--3---3--0-----1--1--1--1--1--1--1--1--1--1-------1---1--0------|
G|--0---0--0-----0--0--0--0--0--0--0--0--0--0-------0---0--0------|
D|--2---2--0-----2--2--2--2--2--2--2--2--2--2-------2---2--2------|
A|--2---2--2-----3--3--3--3--3--3--3--3--3--3-------0---0--0------|
E|--0---0--0-----0--0--0--0--0--0--0--0--0--0-------0---0--0------|
            Now hold  on  cuz  Iím  tryiní  to   save   us,
[ Tab from: http://www.guitaretab.com/t/the-veronicas/188754.html ]
               Em
e|------------0-0-0-0-0-0-0-0-0-0-0-0-------------3---0--0---|
B|------------0-0-0-0-0-0-0-0-0-0-0-0-------------3---3--0---|
G|------------0-0-0-0-0-0-0-0-0-0-0-0-------------0---0--0---|
D|------------2-2-2-2-2-2-2-2-2-2-2-2-------------2---2--0---|
A|------------2-2-2-2-2-2-2-2-2-2-2-2-------------2---2--2---|
E|------------0-0-0-0-0-0-0-0-0-0-0-0-------------0---0--0---|
  Iím still in love with you (still love you, still love you)

Chorus:
              C
e|----------0-0-0-0-0-0-0-0-0-0-0-0----2---0---0---|
B|----------1-1-1-1-1-1-1-1-1-1-1-1----1---1---0---|
G|----------0-0-0-0-0-0-0-0-0-0-0-0----0---0---0---|
D|----------2-2-2-2-2-2-2-2-2-2-2-2----2---2---2---|
A|----------3-3-3-3-3-3-3-3-3-3-3-3----0---0---0---|
E|----------0-0-0-0-0-0-0-0-0-0-0-0----0---0---0---|
            Ooooh     ooooh      ooooh.

             C
e|----------0-0-0-0-0-0-0-0-0-0-0-0---2---|
B|----------1-1-1-1-1-1-1-1-1-1-1-1---1---|
G|----------0-0-0-0-0-0-0-0-0-0-0-0---0---|
D|----------2-2-2-2-2-2-2-2-2-2-2-2---2---|
A|----------3-3-3-3-3-3-3-3-3-3-3-3---0---|
E|----------0-0-0-0-0-0-0-0-0-0-0-0---0---|
            Ooooh     ooooh      ooooh.


Outro:
    C                                        Em
e|-0-0-0-0-0-0-0-0-0-0-0-0-----2----0---0---000000000000---3--0--0--|
B|-1-1-1-1-1-1-1-1-1-1-1-1-----1----1---0---000000000000---3--3--0--|
G|-0-0-0-0-0-0-0-0-0-0-0-0-----0----0---0---000000000000---0--0--0--|
D|-2-2-2-2-2-2-2-2-2-2-2-2-----2----2---2---222222222222---2--2--0--|
A|-3-3-3-3-3-3-3-3-3-3-3-3-----0----0---0---222222222222---2--2--2--|
E|-0-0-0-0-0-0-0-0-0-0-0-0-----0----0---0---000000000000---0--0--0--|
   Donít say goodbye, Donít, Donít say goodbye.

    C                                        Em
e|-0-0-0-0-0-0-0-0-0-0-0-0-----2----0---0---000000000000---3--0--0--|
B|-1-1-1-1-1-1-1-1-1-1-1-1-----1----1---0---000000000000---3--3--0--|
G|-0-0-0-0-0-0-0-0-0-0-0-0-----0----0---0---000000000000---0--0--0--|
D|-2-2-2-2-2-2-2-2-2-2-2-2-----2----2---2---222222222222---2--2--0--|
A|-3-3-3-3-3-3-3-3-3-3-3-3-----0----0---0---222222222222---2--2--2--|
E|-0-0-0-0-0-0-0-0-0-0-0-0-----0----0---0---000000000000---0--0--0--|
   Donít say goodbye, Donít, Donít say goodbye.

    C                                        Em
e|-0-0-0-0-0-0-0-0-0-0-0-0-----2----0---0---000000000000---3--0--0--|
B|-1-1-1-1-1-1-1-1-1-1-1-1-----1----1---0---000000000000---3--3--0--|
G|-0-0-0-0-0-0-0-0-0-0-0-0-----0----0---0---000000000000---0--0--0--|
D|-2-2-2-2-2-2-2-2-2-2-2-2-----2----2---2---222222222222---2--2--0--|
A|-3-3-3-3-3-3-3-3-3-3-3-3-----0----0---0---222222222222---2--2--2--|
E|-0-0-0-0-0-0-0-0-0-0-0-0-----0----0---0---000000000000---0--0--0--|
   Donít say goodbye, Donít, Donít say goodbye.

    C                                        Em
e|-0-0-0-0-0-0-0-0-0-0-0-0-----2----0---0---000000000000---3--0--0--|
B|-1-1-1-1-1-1-1-1-1-1-1-1-----1----1---0---000000000000---3--3--0--|
G|-0-0-0-0-0-0-0-0-0-0-0-0-----0----0---0---000000000000---0--0--0--|
D|-2-2-2-2-2-2-2-2-2-2-2-2-----2----2---2---222222222222---2--2--0--|
A|-3-3-3-3-3-3-3-3-3-3-3-3-----0----0---0---222222222222---2--2--2--|
E|-0-0-0-0-0-0-0-0-0-0-0-0-----0----0---0---000000000000---0--0--0--|
   Donít say goodbye, Donít, Donít say goodbye.

    C                             Em
e|-000000000000---2----0---0----0-0-0-0-0-0-0-0-0-0-0-0--|
B|-111111111111---1----1---0----0-0-0-0-0-0-0-0-0-0-0-0--|
G|-000000000000---0----0---0----0-0-0-0-0-0-0-0-0-0-0-0--|
D|-222222222222---2----2---2----2-2-2-2-2-2-2-2-2-2-2-2--|
A|-333333333333---0----0---0----2-2-2-2-2-2-2-2-2-2-2-2--|
E|-000000000000---0----0---0----0-0-0-0-0-0-0-0-0-0-0-0--|
     Yeahhhhh,    Donít say goodbye, Donít     say    goodbye,

                     C                             Em
e|--3----0---0----000000000000---2---0---0---000000000000--|
B|--3----3---0----111111111111---1---1---0---000000000000--|
G|--0----0---0----000000000000---0---0---0---000000000000--|
D|--2----2---0----222222222222---2---2---2---222222222222--|
A|--2----2---2----333333333333---0---0---0---222222222222--|
E|--0----0---0----000000000000---0---0---0---000000000000--|
   Donít say g o o d b y e e e e e,

                   C                                       Em
e|--3----0---0----0-0-0-0-0-0-0-0-0-0-0-0----2----0---0---000000000000--|
B|--3----3---0----1-1-1-1-1-1-1-1-1-1-1-1----1----1---0---000000000000--|
G|--0----0---0----0-0-0-0-0-0-0-0-0-0-0-0----0----0---0---000000000000--|
D|--2----2---0----2-2-2-2-2-2-2-2-2-2-2-2----2----2---2---222222222222--|
A|--2----2---2----3-3-3-3-3-3-3-3-3-3-3-3----0----0---0---222222222222--|
E|--0----0---0----0-0-0-0-0-0-0-0-0-0-0-0----0----0---0---000000000000--|
  Donít say goodbye, Donít  say  goodbye,  Donít say goodbye,

                   C                                       Em
e|--3----0---0----0-0-0-0-0-0-0-0-0-0-0-0----2----0---0---000000000000--|
B|--3----3---0----1-1-1-1-1-1-1-1-1-1-1-1----1----1---0---000000000000--|
G|--0----0---0----0-0-0-0-0-0-0-0-0-0-0-0----0----0---0---000000000000--|
D|--2----2---0----2-2-2-2-2-2-2-2-2-2-2-2----2----2---2---222222222222--|
A|--2----2---2----3-3-3-3-3-3-3-3-3-3-3-3----0----0---0---222222222222--|
E|--0----0---0----0-0-0-0-0-0-0-0-0-0-0-0----0----0---0---000000000000--|
  Donít say goodbye, Donít  say  goodbye,  Donít say goodbye,

                   C                                       Em
e|--3----0---0----0-0-0-0-0-0-0-0-0-0-0-0----2----0---0---000000000000--|
B|--3----3---0----1-1-1-1-1-1-1-1-1-1-1-1----1----1---0---000000000000--|
G|--0----0---0----0-0-0-0-0-0-0-0-0-0-0-0----0----0---0---000000000000--|
D|--2----2---0----2-2-2-2-2-2-2-2-2-2-2-2----2----2---2---222222222222--|
A|--2----2---2----3-3-3-3-3-3-3-3-3-3-3-3----0----0---0---222222222222--|
E|--0----0---0----0-0-0-0-0-0-0-0-0-0-0-0----0----0---0---000000000000--|
  Donít say goodbye, Donít  say  goodbye,  Donít say goodbye,

                   C                                      Em
e|--3----0---0----0-0-0-0-0-0-0-0-0-0-0-0----2----0---0---0--|
B|--3----3---0----1-1-1-1-1-1-1-1-1-1-1-1----1----1---0---0--|
G|--0----0---0----0-0-0-0-0-0-0-0-0-0-0-0----0----0---0---0--|
D|--2----2---0----2-2-2-2-2-2-2-2-2-2-2-2----2----2---2---2--|
A|--2----2---2----3-3-3-3-3-3-3-3-3-3-3-3----0----0---0---2--|
E|--0----0---0----0-0-0-0-0-0-0-0-0-0-0-0----0----0---0---0--|
  Donít say goodbye, Donít   say   goodbye, Donít say goodbye.
Related for Dont Say Goodbye tab