Song name
# A B C D E F G H I J K L M N O P Q R S T U V W X Y Z

The Veronicas - This Is How It Feels tab

Drop D 

Main part: (prelude + chorus)

       I             II             III           IV
|-9 9 -9 9 9 -|-9 9 9 -9 9 8 -|-9 9 -9 9 9 -|-9 9 9 -9 9 11-|
|-1111-111111-|-111111-111111-|-1111-111111-|-111111-111111-|
|-------------|---------------|-------------|---------------|
|-------------|---------------|-------------|---------------|
|-------------|---------------|-------------|---------------|
|-------------|---------------|-------------|---------------|

    V         VI      VII      VIII
|-88-888-|-888-888-|-66-666-|-666-666-||
|----999-|-999-999-|----777-|-777-777-||
|--------|---------|--------|---------|| x2 (2nd time: IV:-111111-111111- 
|--------|---------|--------|---------||                  -111111-111111- )
|--------|---------|--------|---------||
|--------|---------|--------|---------||

Bridge: 

                               part I    
                         |------------||
                         |------------||
                         |------------||
                         |-1--4--8--6-||
                         |-1--4--8--6-||
                         |-1--4--8--6-||

                
                             part II
         
          ||-6-----------|-------------|-6-----------|--------------|
          ||--66666666666|666666666666-|--66666666666|6666666666666-|
Guitar I  ||-------------|-------------|-------------|--------------|
          ||-------------|-------------|-------------|--------------|
          ||-------------|-------------|-------------|--------------|
          ||-------------|-------------|-------------|--------------|
 
          ||-6-----6-6---|-6----6------|-6-----6-6---|-6-----6------|
          ||-----------6-|--------6--6-|-----------6-|---------6--6-|
Guitar I  ||-------------|-------------|-------------|--------------|
          ||-------------|-------------|-------------|--------------|
          ||-------------|-------------|-------------|--------------|
          ||-------------|-------------|-------------|--------------|
          ||             |             |             |              |
          ||--9--9--9----|-9-~---------|-9-~---------|-9-~--------           
          ||--11-11-11---|-11~---------|-11~---------|-11~----------|
Guitar II ||--10-10-10---|-10~---------|-10~---------|-10~----------|
          ||-------------|-------------|-------------|--------------|
          ||-------------|-------------|-------------|--------------|
          ||-------------|-------------|-------------|--------------|
         
          ||-8----8-8-8--|--8---8---8--|-6----6-6-6--|--6---6---6--|
          ||-9----9-9-9--|--9---9---9--|-7----7-7-7--|--7---7---7--|
Guitar II ||-8----8-8-8--|--8---8---8--|-6----6-6-6--|--6---6---6--|
          ||-------------|-------------|-------------|-------------|
          ||-------------|-------------|-------------|-------------|
          ||-------------|-------------|-------------|-------------|

now go on with the main part and finish the song
Tap to rate this tab
 
# A B C D E F G H I J K L M N O P Q R S T U V W X Y Z