The Veronicas - Revenge Is Sweeter tab

Tabbed by: DaniCattell
Email: daniellecattelbluel@hotmail.com

Intro

guitar 1
e|---------------------------------------------------------------------------|
B|---------------------------------------------------------------------------|
G|---------------------------------------------------------------------------|
D|------2-----2----------0-----0---------------------------------------------| x 6
A|--0-0---0-0---0-0--2-2---2-2---2-0------4-----4----------2-----2-----------|
E|------------------------------------2-2---2-2---2-2--0-0---0-0----0-0------|

guitar 2
e|--------0----0--------------0------0--------0-----0------------0------0----|
B|-----2----------3--------2------2--------2-----------3------2------2-------|
G|--2-------------------2------1-------2-------------------2------1--------1-|
D|---------------------------------------------------------------------------| x 3
A|---------------------------------------------------------------------------|
E|---------------------------------------------------------------------------|

guitar 3
e|----------------------------9----------------------------9-----------------|
B|-----10-9-10------10-9-10-----10-12--12-10-------10-9-10---10-----10-9-10--|
G|--9------------9------------------------------9----------------9-----------|
D|---------------------------------------------------------------------------|
A|---------------------------------------------------------------------------|
E|---------------------------------------------------------------------------|

e|-------------------9-------------------------------------9-----------------|
B|--12--12-10-------------9--10-----10p9-9-10-12--12-10--------9-10----------|
G|--------------9-9----9---------9-----------------------9--9----------------|
D|---------------------------------------------------------------------------|
A|---------------------------------------------------------------------------|
E|---------------------------------------------------------------------------|

e|-------------------9------------9------------------------------------------|
B|-----10p9-9-10--12---12-12-10-------9-10-----10p9-9-10--12--12-10----------|
G|--9---------------------------9--9--------9--------------------------------|
D|---------------------------------------------------------------------------|
A|---------------------------------------------------------------------------|
E|---------------------------------------------------------------------------|

e|---9------------------------9----------------------------------------------|
B|--------9-10-----10-9-10-12---12-12-10-------------------------------------|
G|-9---9--------9------------------------------------------------------------|
D|---------------------------------------------------------------------------|
A|---------------------------------------------------------------------------|
E|---------------------------------------------------------------------------|

 


************************************

| /   slide up
| \   slide down
| h   hammer-on
| p   pull-off
| ~   vibrato
| +   harmonic
| x   Mute note
| b   Bend
| pb  Pre-bend
| br  Bend release
| pbr Pre-bend release
| brb Bend release bend

************************************
Tap to rate this tab
 
# A B C D E F G H I J K L M N O P Q R S T U V W X Y Z