Song name
# A B C D E F G H I J K L M N O P Q R S T U V W X Y Z

The Veronicas - Speechless chords

Highlighted       Show chord diagrams
-----------------------------------------------------------------------------
			     SPEECHLESS - The Veronicas  
-----------------------------------------------------------------------------
Tabbed by: benoz11
Email: benoz11@hotmail.com

-----Chords-----

Bsus2: x35533
F#*: x2003x
G#m: x02210
C#: xx0232
Badd9: x32033
F#: 320033
A#m: x20x3x
D#m:022003
C#add11: 200233


Bsus2 and Badd9 are somewhat interchangeable, play either where you feel it is 
best (In strummed sections)
----------------
Tuning: (Half step down) D# G# C# F# A# D#
----------------


-Intro/Verse1- (Picked)

Listen for the rhythm - occasionally hammer from 0 to 2 on the first note of the second F#*

   Bsus2         F#*         G#m           F#*
d#|-------------------------------------------------------------------------|
A#|-----3----------3----------------1-----------3---------------------------|
F#|--------------------------------2--------------0-------------------------|
C#|---5-----------0-------------0h2-----------0-----------------------------|
G#|3----------0h2-------------0-------------2-------------------------------|
D#|-------------------------------------------------------------------------|

Feels like I have always known you 
And I swear I dreamt about you
All those endless nights I was alone
It's like I've spent forever searching
Now I know that it was worth it
With you it feels like I am finally home



-Pre-Chorus 1- hammer on the A# (3rd fret) on the high d# (e) string on the C# 
chords as song does. (Strummed)

       Badd9                      C#     
Falling head over heels, Thought I knew how it feels
         G#m                              C#
But with you it's like the first day of my life




-Chorus- (Strummed)

                         F#     Badd9    A#m       G#m
'Cause you leave me speechless, when you talk to me
C#               F#          Badd9    A#m          G#m
You leave me breathless, the way you look at me
   C#             D#m       C#add11          F#
You managed to disarm me, my soul is shining through
               Bsus2     A# B(Single notes) C#
Can't help but surrender,                      my everything to you




-Verse 2- (Same as verse 1) (Picked)

I thought I could resist you
I thought that I was strong
somehow you are different from what I've known

I didn't see it coming
You took me by surprise and
You stole my heart before I could say no


-Pre-chorus 2- (Same as Pre-Chorus 1) (Strummed)

-Chorus 2- (same) (Strummed)

- Verse 3- (Solo) ***SHORT*** (Picked)

-Chorus 3- (Strummed)

You leave me speechless
(the way you smile, the way you touch my face)
You leave me breathless
(it's something that you do I can't explain)
I'd run a million miles just to hear you say my name
Baby

-Chorus 4- (Strummed)

-Verse (outro)- (Uses the verse chords) (PICKED, same as intro)
Bsus2    F#*    G#m    A#madd13
Bsus2    F#*    G#m(strummed) C#(Strummed)
F#(Strummed)


-End- 


Regards, Ben.
benoz11@hotmail.com
Tap to rate this tab
# A B C D E F G H I J K L M N O P Q R S T U V W X Y Z