Song name
# A B C D E F G H I J K L M N O P Q R S T U V W X Y Z

The Veronicas - Speechless tab

It's been a while. I checked my contributions and found out how wrong my
other post was so I came to update it. Sadly though, I can't update my previous entry.
I don't know why but here's my NEW version. I think it's accurate now.

This is from a live performance. They're almost the same except for the solo
part so I'll just post both.


TUNE YOUR GUITAR HALF STEP DOWN.

C9: X32033   D   : XX0232  D/G : 200233
G : 320033   DSUS: XX0233
C : X32010   Em/G: 022033


Verse:
 [JUST PLUCK YOUR WAY THROUGH THIS]
|----------------------------------------------------------|
|----------3------------3--------------1-----------3-------|
|-------------0------------0---------0----0----------0-----|
|------2------------0--------------2------------0----------|
|---3----------0h2--------------3-----------0h2------------|
|----------------------------------------------------------|
      C9        G               C            G

           C9            G
Feels like I have always known you
      C                 G
And I swear I've dreamt about you
C9                 G                    C     G
All those endless nights I was alone

          C9                 G
It's like I've spent forever searching
      C                G
Now I know that it was worth it
C9                     G                  C   G
With you it feels like I am finally home


[STRUM THIS PART]
        C
Falling head over heels
          D
Thought I knew how it feels
         C9                                D
But with you it's like the first day of my life



                 G
Cuz you leave me speechless

C9<--(switch fast)-->Em/G      D   
When      you      talk     to me

Dsus(then release*)     G             *as in go back to D
You   leave    me    breathless

C9<--(switch fast)-->Em/G      D   
The    way    you   look   at me

Dsus(then release*)       Em/G       *as in go back to D
You     manage    to    disarm me

D/G                G
My soul is shining through

                C        D
Can't help but surrender

My everything to you

[JUST REPEAT THE EVERYTHING UP THERE^]

I thought I could resist you
I thought that I was strong
Somehow you were different from what I've known
I didn't see you coming
You took me by surprise and
You stole my heart before I could say no

Falling head over heels
Thought I knew how it feels
But with you it's like the first day of my life

You leave me speechless
When you talk to me
You leave me breathless
The way you look at me
You manage to disarm me
My soul is shining through
I can't help but surrender
Oh no
My everything to you


RHYTHM GUITAR: CHORDS FROM THE CHORUS
LEAD GUITAR: SOLO 

[LIVE VERSION]
|---10/12-10-----------------------------------------------|
|----------13-12----12/13-12-------------------------------|
|------------------------------14-12-----12h14p12----------|
|-------------------------------------13----------14-12----|
|----------------------------------------------------------|
|----------------------------------------------------------|


|----------------------------------------------------------|
|--------------13/15--13-12-10/12-10-8---------------------|
|--------12----14/16--14-13-11/13-11-7---------------------|
|--12h14---------------------------------------------------|
|----------------------------------------------------------|
|----------------------------------------------------------|

[STUDIO VERSION]


|----------------------------------------------------------|
|--12-12/14~-12-14-12-12-12-11-11-11-9-9-9-7-7-7-7/14------|
|----------------------------------------------------------|
|----------------------------------------------------------|
|----------------------------------------------------------|
|----------------------------------------------------------|


You leave me speechless
(the way you smile, the way you touch my face)
You leave me breathless
(it's something that you do I can't explain)
I'd run a million miles just to hear you say my name,
Baby

You leave me speechless
You leave me breathless
The way you look at me
You manage to disarm me
My soul is shining through
I can't help but surrender
My everything to you





Tap to rate this tab
# A B C D E F G H I J K L M N O P Q R S T U V W X Y Z