Guitaretab - guitar tabs
Song name
# A B C D E F G H I J K L M N O P Q R S T U V W X Y Z

The Veronicas - Heavily Broken Live Acoustic tab

-------------------------------------------------------------------------------
			  Heavily Broken - The Veronicas
-------------------------------------------------------------------------------
Tabbed by: Erika
Email: i.lubz.co0keiiz@gmail.com

Tuning: Standard

Capo on 1st fret (optional)

Intro/ Verse
"Everyday I sit here waiting"
E------------------------------------------------------------------|
A-------------3-----------------------3----------------------------|
D-------0-------0---0---------0---------0-----0--------------------|
G----2----2-------2--------2-----2---------2-----------------------|
B--3---------------------3-----------------------------------------|
E------------------------------------------------------------------|

E-------------3--------------------------3-----------------------------|
A-------3-------3-----3-----------3--------3-----3---------------------|
D----0----0--------0-----------0----0---------0------------------------|
G----------------------------------------------------------------------|
B----------------------------------------------------------------------|
E--0------------------------0------------------------------------------|

           C9      Em
Do we even care?
      D       C9
Itís so unfair


"Any day it'll all be over"
E------------------------------------------------------------------|
A-------------3-----------------------3----------------------------|
D-------0-------0---0---------0---------0-----0--------------------|
G----2----2-------2--------2-----2---------2-----------------------|
B--3---------------------3-----------------------------------------|
E------------------------------------------------------------------|

E-------------3--------------------------3-----------------------------|
A-------3-------3-----3-----------3--------3-----3---------------------|
D----0----0--------0-----------0----0---------0------------------------|
G----------------------------------------------------------------------|
B----------------------------------------------------------------------|
E--0------------------------0------------------------------------------|
       C9         Em
But it starts again
       D     C9
It'll Never end

[ Tab from: http://www.guitaretab.com/t/the-veronicas/65045.html ]
Chorus
            C9     Em
Iím heavily broken
      C9                  D
And I donít know what to do
                       C9      Em
Canít you see that Iím choking
      C9           D
And I canít even move
             C9               Em
When thereís nothing left to say
C9           D
What can you do
            C9 Em D (let ring)
Iím heavily broken

And thereís nothing I can do


Second Verse:
"Almost given up on trying"
E------------------------------------------------------------------|
A-------------3-----------------------3----------------------------|
D-------0-------0---0---------0---------0-----0--------------------|
G----2----2-------2--------2-----2---------2-----------------------|
B--3---------------------3-----------------------------------------|
E------------------------------------------------------------------|

E-------------3--------------------------3-----------------------------|
A-------3-------3-----3-----------3--------3-----3---------------------|
D----0----0--------0-----------0----0---------0------------------------|
G----------------------------------------------------------------------|
B----------------------------------------------------------------------|
E--0------------------------0------------------------------------------|
     C9     Em
But then again
    D       C9
It doesn't end


Chorus
            C9     Em
Iím heavily broken
      C9                  D
And I donít know what to do
                       C9      Em
Canít you see that Iím choking
      C9           D
And I canít even move
             C9               Em
When thereís nothing left to say
C9           D
What can you do
            C9 Em D (let ring)
Iím heavily broken

And thereís nothing I can do


Bridge
Em                    D
Feels like Iím drowning
        Em                   D
Iím screaming for air (screaming for air)
      Em
And Louder
     D         C9                 D
Iím crying and you donít even care


Chorus
            C9     Em
Iím heavily broken
      C9                  D
And I donít know what to do
                       C9      Em
Canít you see that Iím choking
      C9           D
And I canít even move
             C9               Em
When thereís nothing left to say
C9           D
What can you do
            C9 Em D (let ring)
Iím heavily broken

And thereís nothing I can do


End with

E---------------|
A-0-------------|
D--0------------|
G---2----2------|
B----3-3-3------|
E-----2--3------|

And thatís all to it. Itís a bit repetitive at times so itís pretty easyÖ ENJOY!
Related for Heavily Broken Live Acoustic tab