Song name
# A B C D E F G H I J K L M N O P Q R S T U V W X Y Z

The Veronicas - Heavily Broken tab

Heyyy everyone! well this is my first tab ever sooo if i muked up... sorry :P but im 
sure its all right depends wat sort of style ur into. im a really big fan of the veronicas 
i hope use all enjoy and Good Luck!


Ok se heres the intro and verses
e|-------------------------------------------------------------------------|
B|-------------3------------------------3----------------------------------|
G|--------0------0----0-----------0-------0---2----------------------------|
D|-----2----2-------2----------2-----2------2------------------------------|
A|--3-----------------------3----------------------------------------------|
E|-------------------------------------------------------------------------|

e|--------------3-------------------3--------------------------------------|
B|--------3--------3----3------3------3----3-------------------------------|
G|------0---0---------0------0-----------0---------------------------------|
D|-------------------------------------------------------------------------|
A|----2--------------------------------------------------------------------|
E|-------------------------------------------------------------------------|

Every day i sit here waiting
every day just seems so long
and now ive had enough of all the hating

(down strum)
e|--0-0-0---0-------------0-0-0----0---------------------------------------|
B|--1-1-1---0-------------3-3-3----1p0-------------------------------------|
G|--0-0-0---0-------------2-2-2----0---------------------------------------|
D|--2-2-2---2-------------0-0-0----2---------------------------------------|
A|--3-3-3---2-------------0-0-0----3---------------------------------------|
E|-------------------------------------------------------------------------|

  Do we even care         Its so unfair

intro/verse

any day it'll all be over
any day theres nothing new
and im just tryna find some hope
to try to hold onto

(down strum)
e|--0-0-0---0-------------0-0-0----0---------------------------------------|
B|--1-1-1---0-------------3-3-3----1p0-------------------------------------|
G|--0-0-0---0-------------2-2-2----0---------------------------------------|
D|--2-2-2---2-------------0-0-0----2---------------------------------------|
A|--3-3-3---2-------------0-0-0----3---------------------------------------|
E|-------------------------------------------------------------------------|

But then it starts again  It'll never end

Chorus
(the chorus is strummed and the pattern is down up down up etc. start on "broken")
e|--2-2-2-2--2---2222-2-----2-2-2-2--2---2222-2----------------------------|
B|--2-2-2-2--2---2222-2-----2-2-2-2--3---3333-3----------------------------|
G|--0-0-0-0--0---0000-0-----0-0-0-0--2---2222-3----------------------------|
D|--2-2-2-2--2---2222-2-----2-2-2-2--0---0000-0----------------------------|
A|--3-3-3-3--2---2222-2-----3-3-3-3----------------------------------------|
E|--0-0-0-0--0---0000-0-----0-0-0-0----------------------------------------|

Im heavily Broken, and i dont no what to do
cant you see that im choking, and i cant even move
when theres nothing left to say

e|--0-0-0---0--0-0-0------0--0-0-0-0-0--2----------------------------------|
B|--3-3-3---0--0-0-0------1--1-1-1-1-1--3----------------------------------|
G|--2-2-2---0--0-0-0------0--0-0-0-0-0--2----------------------------------|
D|--0-0-0---2--2-2-2------2--2-2-2-2-2--0----------------------------------|
A|----------3--3-3-3------3--3-3-3-3-3-------------------------------------|
E|-------------------------------------------------------------------------|

what can you do
im heavily broken

(no chord)
and theres nothing i can do

Intro/Verse
e|-------------------------------------------------------------------------|
B|-------------3------------------------3----------------------------------|
G|--------0------0----0-----------0-------0---2----------------------------|
D|-----2----2-------2----------2-----2------2------------------------------|
A|--3-----------------------3----------------------------------------------|
E|-------------------------------------------------------------------------|

e|--------------3-------------------3--------------------------------------|
B|--------3--------3----3------3------3----3-------------------------------|
G|------0---0---------0------0-----------0---------------------------------|
D|-------------------------------------------------------------------------|
A|----2--------------------------------------------------------------------|
E|-------------------------------------------------------------------------|

(play twice berfore singing next verse)

Almost giving up on trying
almost heding for a fall
and now my mind is screaming out
i gotta keep on fighting

(down strum)
e|--0-0-0---0-------------0-0-0----0---------------------------------------|
B|--1-1-1---0-------------3-3-3----1p0-------------------------------------|
G|--0-0-0---0-------------2-2-2----0---------------------------------------|
D|--2-2-2---2-------------0-0-0----2---------------------------------------|
A|--3-3-3---2-------------0-0-0----3---------------------------------------|
E|-------------------------------------------------------------------------|

and it starts again      it'll never end

Chorus 2
e|--2-2-2-2--2---2222-2-----2-2-2-2--2---2222-2----------------------------|
B|--2-2-2-2--2---2222-2-----2-2-2-2--3---3333-3----------------------------|
G|--0-0-0-0--0---0000-0-----0-0-0-0--2---2222-3----------------------------|
D|--2-2-2-2--2---2222-2-----2-2-2-2--0---0000-0----------------------------|
A|--3-3-3-3--2---2222-2-----3-3-3-3----------------------------------------|
E|--0-0-0-0--0---0000-0-----0-0-0-0----------------------------------------|

Im heavily Broken, and i dont no what to do
cant you see that im choking, and i cant even move
when theres nothing left to say

e|--0-0-0---0--0-0-0------0--0-0-0-0-0--2----------------------------------|
B|--3-3-3---0--0-0-0------1--1-1-1-1-1--3----------------------------------|
G|--2-2-2---0--0-0-0------0--0-0-0-0-0--2----------------------------------|
D|--0-0-0---2--2-2-2------2--2-2-2-2-2--0----------------------------------|
A|----------3--3-3-3------3--3-3-3-3-3-------------------------------------|
E|-------------------------------------------------------------------------|

what can you do
im heavily broken

(strum d)

then (em:022000 d:0000323 c:032010)

Em            D
feels like im drowning
   C             D
im screaming for air
Em        D
louder im crying
    C             D(one strum)
and you dont even care

e|--------------3-----------------3----------------------------------------|
B|--------------3-----------------3----------------------------------------|
G|-------0------0----------0------0----x 2---------------------------------|
D|----2----2----2--------2---2----2----------------------------------------|
A|--3------------------2---------------------------------------------------|
E|-------------------------------------------------------------------------|

im heavily broken
and i dont no what to do
cant you see that im choking
and i cant even move

e|--3-3-3-3--3--33333------------------------------------------------------|
B|--3-3-3-3--3--33333------------------------------------------------------|
G|--0-0-0-0--0--00000------------------------------------------------------|
D|--2-2-2-2--2--22222------------------------------------------------------|
A|--3-3-3-3--2--22222------------------------------------------------------|
E|-------------------------------------------------------------------------|

e|--0-0-0---0--0-0-0------0--0-0-0-0-0--2----------------------------------|
B|--3-3-3---0--0-0-0------1--1-1-1-1-1--3----------------------------------|
G|--2-2-2---0--0-0-0------0--0-0-0-0-0--2----------------------------------|
D|--0-0-0---2--2-2-2------2--2-2-2-2-2--0----------------------------------|
A|----------3--3-3-3------3--3-3-3-3-3-------------------------------------|
E|-------------------------------------------------------------------------|

what can you do
im heavily broken

e|--2-2-2-2--2---2222-2-----2-2-2-2--2---2222-2----------------------------|
B|--2-2-2-2--2---2222-2-----2-2-2-2--3---3333-3----------------------------|
G|--0-0-0-0--0---0000-0-----0-0-0-0--2---2222-3----------------------------|
D|--2-2-2-2--2---2222-2-----2-2-2-2--0---0000-0----------------------------|
A|--3-3-3-3--2---2222-2-----3-3-3-3----------------------------------------|
E|--0-0-0-0--0---0000-0-----0-0-0-0----------------------------------------|

Im heavily Broken, and i dont no what to do
cant you see that im choking choking, and i cant even move
when theres nothing left to say

e|--0-0-0---0--0-0-0------0--0-0-0-0-0--2----------------------------------|
B|--3-3-3---0--0-0-0------1--1-1-1-1-1--3----------------------------------|
G|--2-2-2---0--0-0-0------0--0-0-0-0-0--2----------------------------------|
D|--0-0-0---2--2-2-2------2--2-2-2-2-2--0----------------------------------|
A|----------3--3-3-3------3--3-3-3-3-3-------------------------------------|
E|-------------------------------------------------------------------------|

what can you do
im heavily broken

(not strum)
and theres nothing i can do

e|-------------------------------------------------------------------------|
B|-------------3------------------------3----------------------------------|
G|--------0------0----0-----------0-------0---2----------------------------|
D|-----2----2-------2----------2-----2------2------------------------------|
A|--3-----------------------3----------------------------------------------|
E|-------------------------------------------------------------------------|

e|--------------3-------------------3--------------------------------------|
B|--------3--------3----3------3------3----3-------------------------------|
G|------0---0---------0------0-----------0---------------------------------|
D|-------------------------------------------------------------------------|
A|----2--------------------------------------------------------------------|
E|-------------------------------------------------------------------------|


e|-------------------------------------------------------------------------|
B|-------------3------------------------3----------------------------------|
G|--------0------0----0-----------0-------0---2----------------------------|
D|-----2----2-------2----------2-----2------2------------------------------|
A|--3-----------------------3----------------------------------------------|
E|-------------------------------------------------------------------------|

e|--------------3-------------------3--------3-----------------------------|
B|--------3--------3----3------3------3------3-----------------------------|
G|------0---0---------0------0-----------0---0-----------------------------|
D|-------------------------------------------2-----------------------------|
A|----2--------------------------------------2-----------------------------|
E|-------------------------------------------------------------------------|

And thats it! if theres any mistakes just comment me or if u have ne questions do the same

love Ashleigh

Enjoy!!
Tap to rate this tab
# A B C D E F G H I J K L M N O P Q R S T U V W X Y Z