Song name
# A B C D E F G H I J K L M N O P Q R S T U V W X Y Z

The Veronicas - Untouched tab

The Veronicas
Untouched
Submitted by: kaluss@onet.eu

Video how I play this: http://pl.youtube.com/watch?v=DQpQN7QcpS8


Tuning: Drop D


Chords used:

D -    000xxx
F#m -  444xxx
E -    222xxx
Bm -   x244xx
A -    x022xx


Intro 1:

e-55---444---555-44---444-22---44-5--|
B------------------------------------|
G------------------------------------|
D------------------------------------| x2
A------------------------------------|
E------------------------------------|


Intro 2:

D - F#m - E - D



Verse 1:


Bm
  I go ooh ooh you go ah ah
A
  lalalalalalalala
       E
I keep lalalalalalalala
              D
I wanna wanna wanna get get
get what I want Don't stop
Bm
Give me give me give
me what you got got
              A
Cause I can't wait wait
wait any more more more more
E
  Don't even talk
about the consequence
                D
Cause right now you're the only
thing that's making any sense to me
            D
And I don't give a damn what
they say what they think think
                 F#m
Cause you're the only
one who's on my mind
                              E
I'll never ever let you leave me
I'll try to stop time for ever
                     D          
never wanna hear you say goodbye
(bye bye bye)


Chorus:


e------------------------------|
B------------------------------|
G-776776-776776-99911119-777997||x2
D-776776-776776-99911119-777997|
A-554554-554554-777-9-97-555775|
E------------------------------|


Post Chorus:


e-55---444---555-44---444-22---44-5--|
B------------------------------------|
G------------------------------------|
D------------------------------------|
A------------------------------------|
E------------------------------------|


Verse 2:


Bm
See you, breathe you
I want to be you
A
  Alalalala alalalala
        E
You can take take take
take take time time
   D
To live live the way you
gotta gotta live your life
Bm
Give me give me give me all
of you you Don't be scared
     A
I'll see you through the
loneliness of one more more more
E
  Don't even think about what's
right or wrong, wrong or right

Cause in the end it's only you and
me and no one else is gonna be around

To answer all the questions left behind

And you and I are meant to be so
even if the world falls down today
       E
You've still got me to hold you up up
                 D
And I will never let you down (down)



Chorus repeat



Post Chorus:


e-55---444---555-44---444-22---44-5--|
B------------------------------------|
G------------------------------------|
D------------------------------------|
A------------------------------------|
E------------------------------------|


D - F#m - E - D



Chorus Repeat



Solo Part:


e---------------------------------------------------------|
B---------------------------------------------------------|
G---------------------------------------------------------|x2
D---------------------------------------------------------|
A-777777-666-776-7777777-666-776-999911119-997-7777777-997|
E-777777-666-776-7777777-666-776-999911119-997-7777777-997|


Outro:


e-55---444---555-44---444-22---44-5--|
B------------------------------------|
G------------------------------------|
D------------------------------------|
A------------------------------------|
E------------------------------------|
Tap to rate this tab
# A B C D E F G H I J K L M N O P Q R S T U V W X Y Z