Guitaretab - guitar tabs
Song name
# A B C D E F G H I J K L M N O P Q R S T U V W X Y Z

The Verve - Grey Skies tab

Grey Skies - The Verve [Tabbed By Liamblackrebel-Guided By Confusion]
---------------------------------------------------------------------

Main Riff:
---------

e---------------------------------------------------|
b--7---7---0----------------------------------------|
G----9--------9-----9-------------------------------|
D--------9--------9---9-----9-----------------------|
A---------------7---------0----------7-----7--------|
E-----------------------9-----9--7h9---7h9---0------|

--------------------------------------------------------------------
[Then there comes the chorus part, wich you play with a bottleneck.
Just listen to the record, you have to let to vibrate the bottleneck
while sliding down the strings]
--------------------------------------------------------------------
Chorus:
-------
[ Tab from: http://www.guitaretab.com/t/the-verve/191072.html ]
e------------------|
b------------------|
G---11s6-----------|
D--------11s6------|
A-------------11s5-|
E------------------|

Lyrics:
-------

In comes the rest of my life
The road was hot
We were so high we'd give NASA a fright
The road snakes around my aching shoulders, it's over
The road snakes around my shoulder one more time and it's over

Grey skies
No rain in my eyes
Cold winds
Blew her back here again

Walking back home about six past five
No one around you're the only boy alive
See through those blinds your with another guy
No one's gonna save her, I will

Grey skies
No rain in my eyes
Cold wind
Blew her back here again
Grey skies
No rain in my eyes
Cold wind
Blew her back here again

Grey skies, No rain, Goodbye, My pain (x6)

Grey skies
No rain in my eyes
Grey skies
No rain in my eyes

Cold wind
Blew her back here again
Cold wind
Blew her back here again
Related for Grey Skies tab
×
Grey Skies