The Verve - The Rolling People tab

               The Rolling people - The Verve

    Key
for the tabbed parts of the song:
h = hammer on, the next note
b = bend, to the next note shown
p = pull-off, to the next note
~ = vibrato, vibrate string
\ = slide down the fret board
/ = slide up the fret board

             INTRO
E|-------|-----|-------|-----|-----------------------|
B|-------|-----|-------|-----|-----------------------|
G|-------|-----|-------|-----|-------4-------4-------|
D|-7---9-|-7-9-|-7---9-|-7-9-|-4-h-7---4-h-7---4-h-7-|
A|-7---9-|-7-9-|-7---9-|-7-9-|-----------------------|
E|-5---7-|-5-7-|-5---7-|-5-7-|-----------------------|

             VERSE

|| A | B B | D ||  x8

A    B
I got one more life

        D         A      B
Can you see it wastin' away?

         D    A    B     D
But I've got a plan,  awh

    A    B
Do you understand

                  BRIDGE
E|-------------------------------------------------|
B|-------------------------------------------------|
G|----------------7-----------7-9-b-11-11--9-p-7---|
D|-(9)--7-h-8-h-9---7-h-8-h-9--------------------9-|  x2
A|-------------------------------------------------|
E|-------------------------------------------------|

    A    B
The drugstore's wife

       D       A    B
I was dealing soul with the other white

       D           A    B      D
I won't shake your hands,   awh

   A     B                D
Cause' death has no plans

        CHORUS

B
And here we are the rolling people

A
Can't stay for long

                G   A   G   A   B
We gotta' go

B
So come alive we're the rolling people

A
Don't ask why

        G           A    G   A   B
We dont know now, yeah

The 2nd part of the song is pretty much the same as the first just with the different 
heres the lyrics... (same chord progression)

2ND VERSE

I'm on a big jet plane
With my baby's crime in my veins
I'll be the first to toast,  awh
To my rowdy soul

2ND CHORUS

And here we are the rolling people
Don't ask why
We don't know
So come alive we're the rolling people
Don't ask why
We just don't know now,   yeah

  MID-SECTION

B
Don't even know which way I'm going to

B
The lights are on and I am feeling blue

B
I hope you know which way I'm gonna die

B
I thank you for my life, i say goodnight, goodbye

          || A | B B | D ||  x3

                You see me going

          || A | B B | D ||

And then finally play the chorus one last time, with the lyrics from the 1st chorus.

             SOLO

All respect is due to David G for the solo, i haven't tabbed any of it. The solo is 
his works, didn't wanna steal his thunder.

 3:52
E|---------------------------------------------------------|
B|-12----12------------------------------------------------|
G|-14b16-16b14--11h14p11--11-------------------------------|
D|----------------------14--14p12h14p12--12~-14-14-14-14---|
A|-------------------------------------14----14-14-14-14---|
E|---------------------------------------------------------|

E|------------------------------------------------------------|
B|-12----12----12--------------------------------12-12~~\-----|
G|-14b16-14b16-16b14-11h14p11--11----------11h14--------------|
D|---------------------------14--14p12h14---------------------|
A|------------------------------------------------------------|
E|------------------------------------------------------------|

 4:16         4:22     4:27   4:33
E|--------------------------------------|
B|-7-----7------10------12-----10-------|
G|-9b11--9b11---12b14---14b16--12b14----|
D|--------------------------------------|
A|--------------------------------------|
E|--------------------------------------|

 4:39
E|-------------------------------------------------|
B|-------------------------------------------------|
G|-----------------9/7---------------9-9b11r9-7~---|
D|-12\---7-----7h9-9-7--12\---7--9p7---------------|
A|----/9---7h9-------------/9----------------------|
E|-------------------------------------------------|

 4:45
E|------------------------------------------------------|
B|------------------------------------7----7------------|
G|-------7\----------7-7------7---9p7-9b11-9b11-etc-----|
D|-----7----7/9------7-7--7h9---9-----------------------|
A|-7/9------7/9--7h9------------------------------------|
E|------------------------------------------------------|

 4:55           4:58
E|------------------------------------------------------|
B|-10----10------7----3-------------------7-------------|
G|-12b14-12b14---9b11-6b8-----------------9b11-7--------|
D|-------------------------7h9-7h9-7h9-9/--------9~-----|
A|------------------------------------------------------|
E|------------------------------------------------------|

 5:58
E|--------------------------------------------------|
B|-10----12----15-------15----15--------------------|
G|-12b14-14b16-17b19----17b19-17b19--2b2-5/4~~~-----|
D|--------------------------------------------------|
A|--------------------------------------------------|
E|--------------------------------------------------|

 6:03
E|--------------------------------|
B|-15----15-----12----12----------|
G|-17b19-17b19--14b16-14b16-------|
D|--------------------------------|
A|--------------------------------|
E|--------------------------------|

This was tabbed (except the solo) by Harry B, please send any corrections. enjoy...
Tap to rate this tab
 
# A B C D E F G H I J K L M N O P Q R S T U V W X Y Z