Song name
# A B C D E F G H I J K L M N O P Q R S T U V W X Y Z

The Verve - Bittersweet Symphony tab

tabbed by johnny I. from Ottawa,Canada
email me with comments and/or corrections (habsfan94@gmail.com)


Violin/Cello (Guitar 1)
e-------------------------|
B----9-----10-------------|
G-------------------------|
D-------------------------|
A----7------------5-------|
E----------7---------5----|


Guitar 2                                -
e-10---10-----9---9--------------------- |
B---10----------10-------9-12-9-10---10- |
G---------------------------------11---- |
D--------------------------------------- |repeat
A--------------------------------------- |
E--------------------------------------- |
                                        -
Tap to rate this tab
# A B C D E F G H I J K L M N O P Q R S T U V W X Y Z