Song name
# A B C D E F G H I J K L M N O P Q R S T U V W X Y Z

The Verve - Change My Life tab

_____________________________________________
>>>>>>>> Change My Life - The Verve <<<<<<<<<
_____________________________________________
tabbed by liamblackrebel/based on my cover
>>http://www.youtube.com/watch?v=75euH4bslds

Tune up your guitar half a step or use a capo on the first fret.

Verse Riff:
___________

e----------------------------------------------------------------------|
b--------2-----3-----2-----------2--2-----2--0-------------------------|
G--2--2-----2-----2-----2--2--2----------------2-----------------------|
D--2--2-----2-----2-----2--2--2----------------------------------------|
A--0-----------------------0-----------0-------------------------------|
E----------------------------------------------------------------------|

Chorus:
_______

Rythm Guitar:
_____________

e----------------------------------------------------------------------|
b----------------------------------------------------------------------|
G--2--2----2-----------------------------------------------------------|
D--2--2----2--5--5--5--5->s-12--12--12--12->s--5--5--5--5--------------|
A--0--0--0----5--5--5--5->s-12--12--12--12->s--5--5--5--5--------------|
E-------------3--3--3--3->s-10--10--10--10->s--3--3--3--3--------------|

Lead Guitar (without capo!):
____________
For the lead guitar riff you need some tapping skills or you just put a
capo on the sixth fret for just using hammer-on's and pulloff's.
t=tapping/p=pulloff

e--6-t11-p6-t13-p6-t11-p6-t13-t15-p6-t16-p6-t15-p6-t16-----------------|
b----------------------------------------------------------------------|
G----------------------------------------------------------------------|
D----------------------------------------------------------------------|
A----------------------------------------------------------------------|
E----------------------------------------------------------------------|
Tap to rate this tab
# A B C D E F G H I J K L M N O P Q R S T U V W X Y Z