Song name
# A B C D E F G H I J K L M N O P Q R S T U V W X Y Z

The Verve - Lucky Man tab

The Verve - Lucky Man (Urban Hymns)/ 1997

INTRO (Acoustic guitar plays G, D, Asus2)

0:11

e|----------------------------------0h2---------------------|
B|--------------------------------------0h3-----------------|
G|--9-9-9-7-9-----9-----7----9.~------------0h2----9.~------|
D|------------5/7---5/7-------------------------------------|
A|----------------------------------------------------------|
E|----------------------------------------------------------|

0:23

e|------------------------12-10----9-12/0----0h2------------|
B|-----------------------------------------------0h3--------|
G|--9.~----------------------------------------------0h2----|
D|----------------------------------------------------------|
A|---------5h7-4h5h7----------------------------------------|
E|-------------------5--------------------------------------|

0:45

e|----------------------------------------------------------|
B|------------------------------17~-------------------------|
G|--/14~h16-------------------------------------------------|
D|----------------------------------------------------------|
A|----------------------------------------------------------|
E|----------------------------------------------------------|

0:55

VERSE

Happiness, more or less, it's just a change in me

e|----------------------------------------------------------|
B|----------------------------------------------------------|
G|----------------------------------------------------------|
D|----------------------------------------------------------|
A|----------------------------------------------------------|
E|----------------------------------------------------------|

Something in my liberty, oh, my, my

e|---------------------------------------0h2----------------|
B|-------------------------------------------0h3------------|
G|-----------------------------------------------0h2--------|
D|----------------------------------------------------------|
A|----------------------------------------------------------|
E|----------------------------------------------------------|

Happiness, coming and going, I watch you look at me

e|----------------------------------------------------------|
B|----------------------------------------------------------|
G|----------------------------------------------------------|
D|----------------------------------------------------------|
A|----------------------------------------------------------|
E|----------------------------------------------------------|

Watch my fever growing I know, just where I am

e|----------------------------------------------------------|
B|----------------------------------------------------------|
G|----------------------------------------------------------|
D|----------------------------------------------------------|
A|----------------------------------------------------------|
E|----------------------------------------------------------|

PRE-CHORUS

But how many corners do I have to turn?

e|----------------------------------------------------------|
B|----------------------------------------------------------|
G|----------------------------------------------------------|
D|----------------------------------------------------------|
A|----------------------------------------------------------|
E|----------------------------------------------------------|

How many times do I have to learn

e|----------------------------------------------------------|
B|----------------------------------------------------------|
G|----------------------------------------------------------|
D|----------------------------------------------------------|
A|----------------------------------------------------------|
E|----------------------------------------------------------|

All the love I have is in my mind?

e|----------------------------------------------------------|
B|----------------------------------------------------------|
G|----------------------------------------------------------|
D|----------------------------------------------------------|
A|----------------------------------------------------------|
E|-------------------------------------5-7-9-10-------------|

CHORUS

Well, I'm a lucky man

e|----------------------------------------------------------|
B|----------------------------------------------------------|
G|---------------9------------------------------------------|
D|--------11-12----11---------------------------------------|
A|--12----------------12------------------------------------|
E|----------------------------------------------------------|

With fire in my hands

e|----------------------------------------------------------|
B|----------------------------------------------------------|
G|---------------9------------------------------------------|
D|--------11-12----11---------------------------------------|
A|--12----------------12------------------------------------|
E|----------------------------------------------------------|

VERSE

Happiness, something in my own place, I'm stood here naked

e|----------------------------------------------------------|
B|----------------------------------------------------------|
G|----------------------------------------------------------|
D|----------------------------------------------------------|
A|----------------------------------------------------------|
E|----------------------------------------------------------|

Smiling, I feel no disgrace, with who I am

e|---------------------------------------0h2----------------|
B|-------------------------------------------0h3------------|
G|-----------------------------------------------0h2--------|
D|----------------------------------------------------------|
A|----------------------------------------------------------|
E|----------------------------------------------------------|

Happiness, coming and going, I watch you look at me

e|----------------------------------------------------------|
B|----------------------------------------------------------|
G|----------------------------------------------------------|
D|----------------------------------------------------------|
A|----------------------------------------------------------|
E|--3/7/12-----------------------------------15/12/10-------|

Watch my fever growing I know, just who I am

e|----------------------------------------------------------|
B|----------------------------------------------------------|
G|----------------------------------------------------------|
D|----------------------------------------------------------|
A|----------------------------------------------------------|
E|---------------------------------12h15p12h15-12-----------|

PRE-CHORUS

But how many corners do I have to turn?

e|----------------------------------------------------------|
B|----------------------------------------------------------|
G|----------------------------------------------------------|
D|----------------------------------------------------------|
A|----------------------------------------------------------|
E|----------------------------------------------------------|

How many times do I have to learn

e|----------------------------------------------------------|
B|----------------------------------------------------------|
G|----------------------------------------------------------|
D|----------------------------------------------------------|
A|----------------------------------------------------------|
E|----------------------------------------------------------|

All the love I have is in my mind?

e|----------------------------------------------------------|
B|----------------------------------------------------------|
G|----------------------------------------------------------|
D|----------------------------------------------------------|
A|----------------------------------------------------------|
E|-------------------------------------5-7-9-10-------------|

CHORUS

I hope you understand

e|----------------------------------------------------------|
B|--10/12-12-12-10-10-10-8-10-8-10-8-----------8---8--------|
G|-----------------------------------9-9-6h7h9---9---9------|
D|----------------------------------------------------------|
A|----------------------------------------------------------|
E|----------------------------------------------------------|

I hope you understand

e|----------------------------------------------------------|
B|--10/12-12-12-10-10-10-8-10-8-10-8-----------8---8--------|
G|-----------------------------------9-9-6h7h9---9---9------|
D|----------------------------------------------------------|
A|----------------------------------------------------------|
E|----------------------------------------------------------|

Awwwwwwwwww

e|----------------------------------------------------------|
B|--10/12-10/12-10-8-10-10-8--------------------------------|
G|---------------------------9-7-9--------------------------|
D|----------------------------------------------------------|
A|----------------------------------------------------------|
E|----------------------------------------------------------|

e|--------10-12-10-12-12----12-10---------------------------|
B|--10/12-------------------------12-10---------------------|
G|----------------------------------------------------------|
D|----------------------------------------------------------|
A|----------------------------------------------------------|
E|----------------------------------------------------------|

e|----------------------------------------------------------|
B|--10-10-8-10-8-10-8-----------8---8-----------------------|
G|--------------------9-9-6h7h9---9---9---------------------|
D|----------------------------------------------------------|
A|----------------------------------------------------------|
E|----------------------------------------------------------|

VERSE

Happiness, more or less, it's just a change in me, something in my liberty

e|----------------------------------------------------------|
B|----8-8---8-8---8-8---8-8h10-10-10-8-10-10-10-10----------|
G|--9-----9-----9-----9-------------------------------------|
D|----------------------------------------------------------|
A|----------------------------------------------------------|
E|----------------------------------------------------------|

Happiness, coming and going, I watch you look at me, watch my fever growing, I know

e|----------------------------------------------------------|
B|----8-8---8-8---8-8---8-8h10-10-10-8-10-10-10-10----------|
G|--9-----9-----9-----9-------------------------------------|
D|----------------------------------------------------------|
A|----------------------------------------------------------|
E|----------------------------------------------------------|

Oh, my, my (not sure what the guitar does here, so I've tabbed the violin notes for guitar)


e|-------10-9-----------------------------------------------|
B|--8-10------8-10---------8---8----------------------------|
G|-----------------9-6h7h9---9---9--------------------------|
D|----------------------------------------------------------|
A|----------------------------------------------------------|
E|----------------------------------------------------------|

Oh, my, my

e|-------10-9-----------------------------------------------|
B|--8-10------8-10---------8---8----------------------------|
G|-----------------9-6h7h9---9---9--------------------------|
D|----------------------------------------------------------|
A|----------------------------------------------------------|
E|----------------------------------------------------------|

Oh, my, my

e|-------10-9-----------------------------------------------|
B|--8-10------8-10---------8---8----------------------------|
G|-----------------9-6h7h9---9---9--------------------------|
D|----------------------------------------------------------|
A|----------------------------------------------------------|
E|----------------------------------------------------------|

Oh, my, my

e|-------10-9-----------------------------------------------|
B|--8-10------8-10---------8---8----------------------------|
G|-----------------9-6h7h9---9---9--------------------------|
D|----------------------------------------------------------|
A|----------------------------------------------------------|
E|----------------------------------------------------------|

Gotta love that'll never die

e|----------------------------------------------------------|
B|--10/12-12-12-10-10-10-8-10-8-10-8-----------8---8--------|
G|-----------------------------------9-9-6h7h9---9---9------|
D|----------------------------------------------------------|
A|----------------------------------------------------------|
E|----------------------------------------------------------|

I gotta love that'll never die

e|----------------------------------------------------------|
B|--10/12-12-12-10-10-10-8-10-8-10-8------------------------|
G|-----------------------------------9-9--------------------|
D|----------------------------------------------------------|
A|----------------------------------------------------------|
E|----------------------------------------------------------|

e|--------10-12-10------------------------------------------|
B|--10/12----------12-8-10-8---8-8---8-8---8-8---8-8--------|
G|---------------------------9-----9-----9-----9------------|
D|----------------------------------------------------------|
A|----------------------------------------------------------|
E|----------------------------------------------------------|

Oh, oh, oh, I'm a lucky man

e|----------------------------------------------------------|
B|----8-8---8-8---8-8---8-8---8-8---8-8---8-8---8-8---------|
G|--9-----9-----9-----9-----9-----9-----9-----9-------------|
D|----------------------------------------------------------|
A|----------------------------------------------------------|
E|----------------------------------------------------------|

It's just a change in me, something in my liberty

e|--10h12p10------------------------------------------------|
B|-----------12---------------------------------------------|
G|--------------12-14-12----12------------------------------|
D|-----------------------14---------------------------------|
A|----------------------------------------------------------|
E|----------------------------------------------------------|

Oh, my, my

e|-------10-9-----------------------------------------------|
B|--8-10------8-10---------8---8----------------------------|
G|-----------------9-6h7h9---9---9--------------------------|
D|----------------------------------------------------------|
A|----------------------------------------------------------|
E|----------------------------------------------------------|

Oh, my, my

e|-------10-9-----------------------------------------------|
B|--8-10------8-10---------8---8----------------------------|
G|-----------------9-6h7h9---9---9-9/12-12-12-12/14---------|
D|----------------------------------------------------------|
A|----------------------------------------------------------|
E|----------------------------------------------------------|


| /   slide up
| \   slide down
| h   hammer-on
| p   pull-off
| ~   vibrato
| +   harmonic
| x   Mute note
| b   Bend
| pb  Pre-bend
| br  Bend release
| pbr Pre-bend release
| brb Bend release bend
| .   Staccato note
Tap to rate this tab
# A B C D E F G H I J K L M N O P Q R S T U V W X Y Z