Song name
# A B C D E F G H I J K L M N O P Q R S T U V W X Y Z

The Vicious Five - Lisboon Calling tab

-------------------------------------------------------------------------------
			     Lisbon Calling - Vicious Five
-------------------------------------------------------------------------------

Tabbed by: Joanaquai
Email:

Tuning:ebgdae

E|--------------------------------------------------------------------------|
B|--------------------------------------------------------------------------|
G|--9-9-9-9-----------7-7-7-7-----------------------------------------------|
D|--9-9-9-9----7-7----7-7-7-7----5-5----------------------------------------|
A|--7-7-7-7----7-7----5-5-5-5----5-5----------------------------------------|
E|-------------5-5---------------3-3----------------------------------------|



http://www.myspace.com/theviciousfive
Tap to rate this tab
# A B C D E F G H I J K L M N O P Q R S T U V W X Y Z