Song name
# A B C D E F G H I J K L M N O P Q R S T U V W X Y Z

The Vicious Five - The Vice In Advice tab

Help us improve GuitareTab! Take a short survey!
-------------------------------------------------------------------------------
			     The Vice In Advice - The Vicious Five
-------------------------------------------------------------------------------
Tabbed by: Joana P.
Email:

Tuning: standard

INTRO

e|---------------------------------------------------------------------------|
B|---------------------------------------------------------------------------|
G|--9-9-8-8-7-7-6-6-5-5-4-4-3-3----------------------------------------------|
D|--9-9-8-8-7-7-6-6-5-5-4-4-3-3--5-------------------------------------------|
A|--7-7-6-6-5-5-4-4-3-3-2-2-1-1--5-------------------------------------------|
E|-------------------------------3-------------------------------------------|


VERSE - repeat till the other part

e|---------------------------------------------------------------------------|
B|---------------------------------------------------------------------------|
G|---------------------------------------------------------------------------|
D|------------------------------------2---2-0-2------------------------------|
A|---------------5--3----------------------------5--3--3---5-5-5-5-5---------|
E|----5---5-3-5--------5--5-5-5-5-5------------------------3-3-3-3-3---------|


Other part

e|---------------------------------------------------------------------------|
B|--------------------------------------------3------------------------------|
G|---------2-2-------------------------0------0------------------------------|
D|----2-2--0-0---------5-5--------1s2-----2----------------------------------|
A|----0-0---------5-5--3-3---------------------------------------------------|
E|----------------3-3--------------------------------------------------------|


e|---------------------------------------------------------------------------|
B|---------------------------------------------------------------------------|
G|---------------------------------------------------------------------------|
D|---------------------------------------------------------------------------|
A|-------------3-3-3-3-3-----------5-5-5-5-5---------3-----------------------|
E|----0--3--5-------------0--3--5--------------0--3--------------------------|


Then comes the verse again and then this 'other part' again and then another part I 
figured out yet.
Related for The Vice In Advice tab