Song name
# A B C D E F G H I J K L M N O P Q R S T U V W X Y Z

The View - Wasteland tab

First tap so dont might be worng but i think it sounds right

Enjoy

----------------------------------------------------------------------------|
-12-12-12-13-12-----12-12-12-13-12-----12-12-12-13-12----12-11-10----10-----|
----------------14-----------------12-----------------14----------12----12--|
----------------------------------------------------------------------------|
----------------------------------------------------------------------------|
----------------------------------------------------------------------------|

----------------------------------------------------------------------------|
--------12-12-12-13-12-----12-12-12-13-12-----12-12-12-13-12----12----------|
11---------------------14-----------------12-----------------14-------------|
----------------------------------------------------------------------------|
----------------------------------------------------------------------------|
----------------------------------------------------------------------------|
Tap to rate this tab
# A B C D E F G H I J K L M N O P Q R S T U V W X Y Z