Song name
# A B C D E F G H I J K L M N O P Q R S T U V W X Y Z

The View - One Off Pretender tab

|-7p8--------------------------|
|-----8-------8-10 10^-8-------|
|-------9-7h9------------9-----|
|------------------------------|
|------------------------------|
|------------------------------|

|----------------------7------|
|-8-7-------------8s10--------|
|-----7-------7h9-------------|
|-------9-7h9-----------------|
|-----------------------------|
|-----------------------------|

|-7p8--------------------------|
|-----8-------8----------------|
|-------9-7h9------------------|
|------------------------------|
|---------------9^-7-9---------|
|------------------------------|

|------------------------7-10-12--|
|-8-7-------------7h8s10----------|
|-----7-------7h9-----------------|
|-------9-7h9---------------------|
|---------------------------------|
|---------------------------------|

Breakdown bit.

|--12s10s12-12s10s7-10----------|
|-------------------------------|
|----------------------9--------|
|-------------------------------|
|-------------------------------|
|-------------------------------|

|-12s10s7-10-12------14---14-----14s--|
|-----------------17^--17^---17r------|
|-------------------------------------|
|-------------------------------------|
|-------------------------------------|
|-------------------------------------|

Tap to rate this tab
# A B C D E F G H I J K L M N O P Q R S T U V W X Y Z