Song name
# A B C D E F G H I J K L M N O P Q R S T U V W X Y Z

The View - Claudia tab

Hello Hello, 
this is my first tab for UG! =)
it should be correct, just need to get the timing right! :D 
hope it helped... any queries can mail me @ eugene_cage@hotmail.com

Intro solo (00:10 - 00:23)

E|-------------------------------------------------------------------------|
B|-------------------------------------------------------------------------|
G|---------11-12-14----12-11-9-11-9--9--------------------11~11-10-9-11----|
D|9-10-12--------------------------12--12-10-12-10-9h10p9------------------|
A|-------------------------------------------------------------------------|
E|-------------------------------------------------------------------------|

Mid solo (01:17 - 01:31)

E|---------------------------12--------------------------------------------|
B|------------------------15---15-12----------12-12------------------------|
G|---------11-12-14---b14------------14-12-14-------14-12----12h14p12------|
D|9-10-12-------------------------------------------------14---------------|
A|-------------------------------------------------------------------------|
E|-------------------------------------------------------------------------|

E|-----15-17-19--19-15----19-15----19-15----19-15----15h17p15--------------|
B|--17-----------------17-------17-------17-------17-----------------------|
G|-------------------------------------------------------------------------|
D|-------------------------------------------------------------------------|
A|-------------------------------------------------------------------------|
E|-------------------------------------------------------------------------|
Tap to rate this tab
 
# A B C D E F G H I J K L M N O P Q R S T U V W X Y Z