Song name
# A B C D E F G H I J K L M N O P Q R S T U V W X Y Z

The View - Up The Junction Acoustic tab

-------------------------------------------------------------------------------
			     UP THE JUNCTION (ACOUSTIC)- The View
-------------------------------------------------------------------------------
Tabbed by:Adam Crow
Email: adam_c_94@hotmail.co.uk

Tuning: Standard

e|---------0--2--0-----0--4--2--4--2--0-----------0--2--0--------------------|
B|--0--2------------2--------------------2--0--2----------2--0--2--0--0------|
G|---------------------------------------------------------------------2-----|
D|------------------------------------------------------------------------0--|
A|---------------------------------------------------------------------------|
E|---------------------------------------------------------------------------|

e|----x-x-x-x----x-x-x-x-----------------------------------------------------|
B|----x-x-x-x----x-x-x-x-----------------------------------------------------|
G|----x-x-x-x----x-x-x-x-----------------------------------------------------|
D|----x-x-x-x----x-x-x-x-----------------------------------------------------|
A|----x-x-x-x----x-x-x-x-----------------------------------------------------|
E|----x-x-x-x----x-x-x-x-----------------------------------------------------|

Tap to rate this tab
# A B C D E F G H I J K L M N O P Q R S T U V W X Y Z