Song name
# A B C D E F G H I J K L M N O P Q R S T U V W X Y Z

The View - Double Yellow Lines tab

ive been waiting on someone working out this tab for ages and it dosent seem like anyone
so heres my attempt any corrections r welcome.


E-22222222|         on the 5th set the base goes
B-33333333|
G---------|          G-----------------|
D---------|  x12     D-----------------|
A---------|          A-----------------|
E---------|          E-0-10-----9-10-3-|

then about 20 seconds in:

E---14------14--14----------14--14----------14--17--14--14--15-----|
B-15--15--15--15--15--15--15--15--15--15--15----------15------12---|
G------------------------------------------------------------------|
D------------------------------------------------------------------|  X2
A------------------------------------------------------------------|
E------------------------------------------------------------------|

gtr1

E--------------------------------------------------------|
B--------------------------------------------------------|
G--7-7-7-9-7-7-9-7---12-12-12--14--14--12--12--11--11--9-|
D-7-7-7-----9-----9--------------------------------------|
A--------------------------------------------------------|
E--------------------------------------------------------|

E-------------------------------------------------------|
B-------------------8p7-----------0---------------------|
G--7-7-7-9-7-7-9-7------9p7-7-9-7-----------------------|
D-7-7-7-----9-----9-------------------------------------|
A-------------------------------------------------------|
E-------------------------------------------------------|

then when the singing starts

E---------------------------|
B---------------------------|
G--7-12-11-9-7-9-6-9-7-6-4--|
D-7-------------------------| X2 then back to the riff above play thi section twice
A---------------------------|
E---------------------------|

thats about it listen to the song for timing and leave a comment.
Tap to rate this tab
 
# A B C D E F G H I J K L M N O P Q R S T U V W X Y Z