Song name
# A B C D E F G H I J K L M N O P Q R S T U V W X Y Z

The View - Tragic Magic tab

Worked out by ear, Think it's almost 100%, E-Mail me if you have any questions at 
matador2012@hotmail.co.uk


Solo


E------------------------------------------------------|
B------------------------------------------------------|
G--11---11-9-11----11-9--11s14--13--11--9--------------|
D------------------------------------------------------|
A------------------------------------------------------|
E------------------------------------------------------|

E------------------------------------------------------|
B------------------------10-12-10-9-10-9---------------|
G--11---11-9-11----11-9-------------------11--9--------|
D------------------------------------------------------|
A------------------------------------------------------|
E------------------------------------------------------|

E------------------------------------------------------|
B------------------------------------------------------|
G--11---11-9-11---9---11s14---13---11---9s6---6h7--6-7-|
D------------------------------------------------------|
A------------------------------------------------------|
E------------------------------------------------------|
Tap to rate this tab
# A B C D E F G H I J K L M N O P Q R S T U V W X Y Z