Song name
# A B C D E F G H I J K L M N O P Q R S T U V W X Y Z

The View - The Clock tab

The View - The Clock (album) = cheeky for a reason

Worked out by ear, timing pretty straight forward. E-mail me if any questions on 
matador2012@hotmail.co.uk



E------------------------------------------------------|
B-------10----8--10------------------------------------|
G--9-------9---------9---------------------------------|  X7
D------------------------------------------------------|
A------------------------------------------------------|
E------------------------------------------------------|
3

E------------------------------------------------------|
B------10----8-10---10--------13--10------10-----------|
G--9------9---------------------------12-------9-------|
D------------------------------------------------------|
A------------------------------------------------------|
E------------------------------------------------------|
Tap to rate this tab
# A B C D E F G H I J K L M N O P Q R S T U V W X Y Z