Song name
# A B C D E F G H I J K L M N O P Q R S T U V W X Y Z

The View - Girl tab

Worked this out by ear, sounds pretty close to perfect to me,for timing listen to the 
song.If you need to ask any questions e-mail me at matador2012@hotmail.co.uk


Intro
E------------------------------------------------------|
B------------------------------------------------------|
G------6s8--8----4h6------8--6--4----------------------|
D------------------------------------------------------|
A------------------------------------------------------|
E------------------------------------------------------|

E------------------------------------------------------|
B------------------------------------------------------|
G------6s8--8----4h6------8--6--4(hold)----------------|
D------------------------------------------------------|
A------------------------------------------------------|
E------------------------------------------------------|

E------------------------------------------------------|
B--7s12------14p12-----14s16---14p12-------------------|
G---------------------------------------11-------------|
D------------------------------------------------------|
A------------------------------------------------------|
E------------------------------------------------------|

E------------------------------------------------------|
B--12--11--7--------12--11--7--12----------------------|
G-------------8----------------------------------------|
D------------------------------------------------------|
A------------------------------------------------------|
E------------------------------------------------------|

E------------------------------------------------------|
B----12--11--7----12s14--14s16-------------------------|
G------------------------------------------------------|
D------------------------------------------------------|
A------------------------------------------------------|
E------------------------------------------------------|
Tap to rate this tab
# A B C D E F G H I J K L M N O P Q R S T U V W X Y Z