Song name
# A B C D E F G H I J K L M N O P Q R S T U V W X Y Z

The View - Underneath The Light tab

The View
Underneath The Light
Tabbed: JooshY4

Standard Tuning [ E, A, D, G, B, e]

Intro / Verse 1

"Underneath the light"
e|----------------------------|
B|----------------------------|
G|------x7-7------------------|
D|-7-7--x7-7--x7-7--5555------|
A|-7-7--x5-5--x7-7--5555------|
E|-5-5--------x5-5--3333------| x5


Pre Chorus 1
"And all the people so friendly"
e|-----------------------]   
B|-----------------------]   
G|-5-5-5-5-5-------------]    
D|-5-5-5-5-5--7-7-7-7-7--]  
A|-3-3-3-3-3--7-7-7-7-7--]    
E|------------5-5-5-5-5--] x3   


"We're gonna dance, dance"
e|---------------======---|
B|------------------------|
G|------------------------|
D|-10~~~~----9~~---8------|
A|-10~~~~----9~~---8------|
E|-8~~~~~----7~~---6------|


Intro Riff x2


Verse 2
"We Drink like the Irish"
e|----------------------------|
B|----------------------------|
G|------x7-7------------------|
D|-7-7--x7-7--x7-7--5555------|
A|-7-7--x5-5--x7-7--5555------|
E|-5-5--------x5-5--3333------| x4

Pre Chorus 2

Chorus 1 
"And now we've kissed"                          First Time    Second Time
e|-(--------------------------------------)    (----------) (-------------)
B|-(--------------------------------------)    (----------) (-------------)
G|-(---------9-9-9-9--10-10-10-10---------)    (--7-7-7-7-) (-7-7-7-------)
D|-(7-7-7-7--9-9-9-9--10-10-10-10---------)    (--7-7-7-7-) (-7-7-7--75---)
A|-(7-7-7-7--7-7-7-7--8--8--8--8----------)    (--5-5-5-5-) (-5-5-5--75---)
E|-(5-5-5-5-------------------------------) x2 (----------) (--------53---)


Intro Riff x2

Verse 3
"Sacrifice delight, a part of life never ignore"

Pre Chorus 3
"Ah you used to be so friendly"

Chorus 2
"And now we've kissed"

Chorus 3
"And now we've kissed, let's make the most of this
I don't care who's wrong, I just don't want to go home alone"

// (Will be adding the rest soon) \\
Tap to rate this tab
 
# A B C D E F G H I J K L M N O P Q R S T U V W X Y Z