Guitaretab - guitar tabs
Song name
# A B C D E F G H I J K L M N O P Q R S T U V W X Y Z

The View - Superstar Tradesman Acoustic tab

Watch it here: http://uk.youtube.com/watch?v=nTR33YfKEj0

Chords(Rythym Guitar):
C/G     = 332010
Am    = x02210
Fmaj7 = x33210
G     = 320033
Dm    = x57765
Am 2  = 577555

Intro:
(Rythym Guitar):
C/G Am Fmaj7 C/G x2

(Lead Guitar):
|-------12----------12----------8----------12--------| x2
|-----13--13------13--13------10-10------13---13-----|
|---12------12--14------14--10-----10--12-------12---|
|----------------------------------------------------|
|----------------------------------------------------|
|----------------------------------------------------|

Verse 1:
(Rythym Guitar):
C/G       Am         Fmaj7    C/G
Superstar Tradesman, Stand at the bar,
C/G       Am      Fmaj7   C/G
Get a trade son, You will go far.

(Lead Guitar):
|---12-12-12-12-12-12-12-12-8-8-8-8-12-12-12-12--| x2
|---13----13----13----13----10--10--13----13-----|
|---12----12----14----14----10--10--12----12-----|
|------------------------------------------------|
|------------------------------------------------|
|------------------------------------------------|

(Rythym):
C/G           G         C/G            G
Youíll have a house in the Ferry,And a new guitar,

(Lead):
|---12-x6-15-x6-12-x6-15-x6----|
|---13----13----13----13-------|
|---12----12----12----12-------|
|------------------------------|
|------------------------------|
|------------------------------|

(Rythym):
C/G              Am
Thatís never been played before,
Fmaj7    C/G
And it never will,
C/G          Am
Its never been played before,
Fmaj7      C/G
And it never will.

(Lead):
|---12-12-12-12-12-12-12-12-8-8-8-8-12-12-12-12--| x2
|---13----13----13----13----10--10--13----13-----|
|---12----12----14----14----10--10--12----12-----|
|------------------------------------------------|
|------------------------------------------------|
|------------------------------------------------|
[ Tab from: http://www.guitaretab.com/t/the-view/96066.html ]
Verse 2:
(Rythym):
Am                 G
The weather is sunny,
Am                 G
Youíre locked inside,
Am                  G         Am            G   
The weather is sunny oh yes, Iíve tried and Iíve tried,

(Lead):
Same only as bar chords!!

(Rythym):
C/G         Am       Fmaj7    C/G
To keep me saaaane, to keep me sane,
C/G         Am       Fmaj7    C/G
To keep me saaaane, to keep me sane.

(Lead):
|---12-12-12-12-12-12-12-12-8-8-8-8-12-12-12-12--| x2
|---13----13----13----13----10--10--13----13-----|
|---12----12----14----14----10--10--12----12-----|
|------------------------------------------------|
|------------------------------------------------|
|------------------------------------------------|

Verse 3:
I donít want money, [repeat for both guitars]
I want happiness,
I donít want cash and no, I quite like memories,
To keep us on track, Will never look back,
Keep us on track, Lets never look back.

Bridge:
(Rythym & Lead):
Dm          Am 2     Dm      Am 2 (play muted strings once after each chord)
Ha, what would you do, If I asked you,
Dm            Am 2    Dm      Am 2
What would you do, If I asked you,

(Rythym):
C/G         Am     Fmaj7      C/G
To sail awaaaay, To see some sights,
Am           Fmaj7      C/G
Sail awaaaay with me, To see some sights,

(Lead):
|---12-12-12-12-12-12-12-12-8-8-8-8-12-12-12-12--| x2
|---13----13----13----13----10--10--13----13-----|
|---12----12----14----14----10--10--12----12-----|
|------------------------------------------------|
|------------------------------------------------|
|------------------------------------------------|

Superstar Tradesman, [repeat from start]
Stand at the bar,
Get a trade son,
You will go far.

Youíll have a house in the Ferry,

(Lead):
|--3-2-1--|
|--3-2-1--|
|--4-3-2--|
|--5-4-3--|
|--5-4-3--|
|--3-2-1--|

And a new guitar,
Thatís never been played before,
And it never will,
Its never been played before,
And it never will.
Related for Superstar Tradesman Acoustic tab