Guitaretab - guitar tabs
Song name
# A B C D E F G H I J K L M N O P Q R S T U V W X Y Z

The Villains - From The River tab

From The River
The Villains

Tuning: drop D (D A D G B E)

Legend

B=bend
R=release
*=staccato picking
~=vibrato

this is my first tab...ever..so plz go ez on me :) im 100% sure that most of it is 
the solo was a bit sketchy and hard to catch so some of it may be off a bit, but still close.

Intro
                                                                  2x
D|-----------------------------------------------------------------|
A|-----------------------------------------------------------------|
D|-----------------------------------------------------------------|
B|---5~------------------5~------------------4~------------------3~|
G|---6~------------------5~------------------3~------------------3~|
E|-----------------------------------------------------------------|

D|---------|
A|---------|
D|------8--|
B|----7----|
G|--4------|
E|---------|

D|-----------------------------------------------------------------|
A|-----------------------------------------------------------------|
D|-----------------------------------------------------------------|
B|---5~------------------5~------------------4~------------------3~|
G|---6~------------------5~------------------3~------------------3~|
E|-----------------------------------------------------------------|

Pre-Chorus

D|--1-3-----13-----1-3-----1-3|
A|--1-3-----13-----1-3-----1-3|
D|--1-3-----13-----1-3-----1-3|
G|-----------------------------|
B|-----------------------------|
E|-----------------------------|                             }x2


D|-----10---9--88-9-8--3-2-1-3-|
A|-----10---9--88-9-8--3-2-1-3-|
D|-----10---9--88-9-8--3-2-1-3-|
G|-----------------------------|
B|-----------------------------|
E|-----------------------------|

Chorus


D|--8-9-3------1-2-3------1-2--10---9--88-9-8--3-2-1-3-|
A|--8-9-3------1-2-3------1-2--10---9--88-9-8--3-2-1-3-|
D|--8-9-3------1-2-3------1-2--10---9--88-9-8--3-2-1-3-|
G|-----------------------------------------------------|
B|-----------------------------------------------------|
E|-----------------------------------------------------|


D|--1-3-----13-----1-3-----1-3|
A|--1-3-----13-----1-3-----1-3|
D|--1-3-----13-----1-3-----1-3|
G|-----------------------------|
B|-----------------------------|
E|-----------------------------|


D|-----10---9--88-9-8--3-2-1-3-|
A|-----10---9--88-9-8--3-2-1-3-|
D|-----10---9--88-9-8--3-2-1-3-|
G|-----------------------------|
B|-----------------------------|
E|-----------------------------|

D|--1-3-----13-----1-3-----1-3|
A|--1-3-----13-----1-3-----1-3|
D|--1-3-----13-----1-3-----1-3|
G|-----------------------------|
B|-----------------------------|
E|-----------------------------|


D|-----10---9--88-9-8--3-2-1|
A|-----10---9--88-9-8--3-2-1|
D|-----10---9--88-9-8--3-2-1|
G|--------------------------|
B|--------------------------|
E|--------------------------|


D||-----------------------------------------------------------------|
A||-----------------------------------------------------------------|
D||-----------------------------------------------------------------|
B||---5~------------------5~------------------4~------------------3~|
G||---6~------------------5~------------------3~------------------3~|
E||-----------------------------------------------------------------|

D|---------|| x2
A|---------||
D|------8--||
B|----7----||
G|--4------||
E|---------||

D|------------------------------------------------------------|
A|------------------------------------------------------------|
D|------------------------------------------------------------|
B|---5~---------------5~-----------------4~-----------------3~|
G|---6~--------9------5~----------9------3~---------9-------3~|
E|-----------8------------------8-----------------8-----------|


D|--1-3-----13-----1-3-----1-3|
A|--1-3-----13-----1-3-----1-3|
D|--1-3-----13-----1-3-----1-3|
G|-----------------------------|
B|-----------------------------|
E|-----------------------------|                              }x2


D|-----10---9--88-9-8--3-2-1-3|
A|-----10---9--88-9-8--3-2-1-3|
D|-----10---9--88-9-8--3-2-1-3|
G|----------------------------|
B|----------------------------|
E|----------------------------|


D|--8-9-3------1-2-3------1-2--10---9--88-9-8--3-2-1-3-|
A|--8-9-3------1-2-3------1-2--10---9--88-9-8--3-2-1-3-|
D|--8-9-3------1-2-3------1-2--10---9--88-9-8--3-2-1-3-|
G|-----------------------------------------------------|
B|-----------------------------------------------------|
E|-----------------------------------------------------|


D|--1-3-----13-----1-3-----1-3|
A|--1-3-----13-----1-3-----1-3|
D|--1-3-----13-----1-3-----1-3|
G|-----------------------------|
B|-----------------------------|
E|-----------------------------|                            }x2


D|-----10---9--88-9-8--3-2-1-3-|
A|-----10---9--88-9-8--3-2-1-3-|
D|-----10---9--88-9-8--3-2-1-3-|
G|-----------------------------|
B|-----------------------------|
E|-----------------------------|

[ Tab from: http://www.guitaretab.com/t/the-villains/116797.html ]
D|--1-3-----13-----1-3-----1-3|
A|--1-3-----13-----1-3-----1-3|
D|--1-3-----13-----1-3-----1-3|
G|-----------------------------|
B|-----------------------------|
E|-----------------------------|

D|--6----8-|-------------------|
A|--6----8-|---3-5---------5---|
D|--6----8-|------3-5--5-3-----|
G|---------|---------3---------|
B|---------|-------------------|
E|---------|-------------------|


D|--1-3-----13-----1-3-----1-3|
A|--1-3-----13-----1-3-----1-3|
D|--1-3-----13-----1-3-----1-3|
G|-----------------------------|
B|-----------------------------|
E|-----------------------------|

D|--10---9---8~----|
A|--10---9---8~----|
D|--10---9---8~----|
G|-----------------|
B|-----------------|
E|-----------------|

Solo

D|-------------------------------------------|
A|-------------------------------------------|
D|-------------------------------------------|
G|------10---10---10---10---10---10---10---10|
B|--11p9-11p9-11p9-11p9-11p9-11p9-11p9-11p9--|
E|-------------------------------------------|


D|------------------------------------|
A|------------------------------------|
D|------------------------------------|
B|------------------------------------|
G|--11b~----11----11r----11r----11r---|		(slowly release)
E|-------11----11-----11-----11-----11|

D|------------------------------------------|
A|------------------------------------------|
D|------------------------------------------|
B|------------------------------------------|
G|-----7----6----5----4-----9----5----5----3|
E|--7p5--6p4--5p3--4p2---9p7--7p5--5p3--3p1-|


D|-------------------------------13|
A|---------------13-13-11-13-11-9--|
D|--13-13-11-13-11-11--------------|
B|---11----------------------------|
G|---------------------------------|
E|---------------------------------|


D|-----------------------------------------------------|
A|-----------------------------------------------------|
D|-----------------------------------------------------|
B|-----------------------------------------------------|
G|-11-12-------11-12--------12-13--------12-13---------|
E|------11-10-9-----11-10-9------12-11-10-----12-11-10-|

D|--------------------------------|
A|--------------------------------|
D|--------------------------------|
B|--------------------------------|
G|-11b-11b-11b-11b-12b-12b-12b-12b|
E|--------------------------------|


D|--------------------------------------------------|
A|--------------------------------------------------|
D|-------------------15-----------------------------|
B|--15-b-r--13-15-13----13--------------------------|
G|--------------------------------------------18----|
E|---------------------------18-b-r--16-18-16----16-|

D|----------------------------------------------|
A|----------------------------------------------|
D|----------------------------------------------|
B|----------------------------------------------|
G|----12/18\12---12*-18*-12*-18*-12*-18*-12*-18*|
E|----------------------------------------------|

D|-3-9b--3-9b--3-9b--3-9b-|
A|-3-9b--3-9b--3-9b--3-9b-|
D|-3-9b--3-9b--3-9b--3-9b-|
G|------------------------|
B|------------------------|
E|------------------------|

D|-----10---9--88-9-8--3-2-1-3-|
A|-----10---9--88-9-8--3-2-1-3-|
D|-----10---9--88-9-8--3-2-1-3-|
G|-----------------------------|
B|-----------------------------|
E|-----------------------------|


D|--8-9-3------1-2-3------1-2--10---9--88-9-8--3-2-1-3-|
A|--8-9-3------1-2-3------1-2--10---9--88-9-8--3-2-1-3-|
D|--8-9-3------1-2-3------1-2--10---9--88-9-8--3-2-1-3-|
G|-----------------------------------------------------|
B|-----------------------------------------------------|
E|-----------------------------------------------------|


D|--1-3-----13-----1-3-----1-3|
A|--1-3-----13-----1-3-----1-3|
D|--1-3-----13-----1-3-----1-3|
G|-----------------------------|
B|-----------------------------|
E|-----------------------------|                               }x2


D|-----10---9--88-9-8--3-2-1-3-|
A|-----10---9--88-9-8--3-2-1-3-|
D|-----10---9--88-9-8--3-2-1-3-|
G|-----------------------------|
B|-----------------------------|
E|-----------------------------|


D|--1-3-----13-----1-3-----1-3|
A|--1-3-----13-----1-3-----1-3|
D|--1-3-----13-----1-3-----1-3|
G|-----------------------------|
B|-----------------------------|
E|-----------------------------|

D|--------------------|
A|--------------------|
D|--------------------|
G|--------------------|
B|--------------------|
E|--8*----7*----6*----|

D|--1-3-----13-----1-3-----1-3|
A|--1-3-----13-----1-3-----1-3|
D|--1-3-----13-----1-3-----1-3|
G|-----------------------------|
B|-----------------------------|
E|-----------------------------|

D|----------10--9--8--7--6--5--4--3--2--3~---3\|
A|-8--7--6------------------------------3~---3\|
D|--------------------------------------3~---3\|
G|---------------------------------------------|
B|---------------------------------------------|
E|---------------------------------------------|


http://profile.myspace.com/index.cfm?fuseaction=user.viewprofile&friendID=10608799