Guitaretab - guitar tabs
Song name
# A B C D E F G H I J K L M N O P Q R S T U V W X Y Z

The Vincent Black Shadow - Metro tab

Metro Guitar Tab
  Song credits:
  Music - Robbie Kirkham
  Lyrics - Cassie Ford/Robbie Kirkham
  Arranged - Robbie Kirkham/Anthony Kirkham
  Copyright  2006 Bodog Music/Taykar Publishing

Note: Thanks to Robbie for actually giving this tab to the fans of TVBS for Christmas. 
sure to pick up the album "The Fears In The Water" if you don't already have it.
                                             - H_Zula


CHORDS USED
     E MAJOR     C# MINOR(1)   C# MINOR(2)     A MAJOR       B MAJOR       B MAJOR
E|------0------|------9------|------4------|------5------|------4------|------7------|
B|------0------|------9------|------5------|------5------|------4------|------7------|
G|------1------|------9------|------6------|------6------|------5------|------6------|
D|------2------|------11-----|------6------|------7------|------6------|------9------|
A|------2------|------11-----|------4------|------7------|------6------|------9------|
E|------0------|------9------|-------------|------5------|------4------|------7------|

STANDARD TUNNING: EADGBe

E|------------------------|------------------------|-----------------------|
B|------------------------|---------4--------------|---------------------7-|
G|------------------------|---------5--------------|---------------------8-|
D|11-11-11-11-11-11-11-11-|11-11-11-4--11-11-11-11-|11-11-11-11-11-11-11-7-|
A|11-11-11-11-11-11-11-11-|11-11-11----11-11-11-11-|11-11-11-11-11-11-11---|
E|9--9--0--0--9--9--0--0--|9--9--0-----9--9--0--0--|9--9--0--0--9--9--0----|

E|------------------------|------------------------|-----------------------|
B|------------------------|4--4--XX-X--7--7--XX-X--|-----------------------|
G|------------------------|5--5--XX-X--8--8--XX-X--|12-12------------------|
D|11-11-11-11-11-11-11-11-|4--4--XX-X--7--7--XX-X--|11-11-11---------------|
A|11-11-11-11-11-11-11-11-|------------------------|12-12-11---------------|
E|9--9--0--0--9--9--0--0--|------------------------|------9---Bass Break---|

Bend the 11th fret so that it plays the 13th fret note and strum along with beat.

E|------------------------| Play 2x
B|------------------------|
G|--9---------------------|
D|--11^-------11----------|
A|------------------------|
E|------------------------|

Oh I don't know why...

E|5---5---5---5---|4---4---4---4---|5---5---5---5---|4---4---4---4---|
B|5---5---5---5---|4---4---4---4---|5---5---5---5---|4---4---4---4---|
G|6---6---6---6---|5---5---5---5---|6---6---6---6---|5---5---5---5---|
D|7---7---7---7---|6---6---6---6---|7---7---7---7---|6---6---6---6---|
A|7---7---7---7---|6---6---6---6---|7---7---7---7---|6---6---6---6---|
E|5---5---5---5---|4---4---4---4---|5---5---5---5---|4---4---4---4---|

Now he's back again.../Something's closing in...

Emajor
C# Minor(2)
Amajor
Bmajor

You say I'm crazy I know....repeat X4
[ Tab from: http://www.guitaretab.com/t/the-vincent-black-shadow/150159.html ]
E|----------------|----------------|9--9------------|5--5--7-7-7-----|
B|9--9------------|9-9-------------|9--9------------|5--5--7-7-7-----|
G|9--9------------|8-8-------------|9--9------------|6--6--8-8-8-----|
D|9--9------------|9-9-------------|11-11-----------|7--7--9-9-9-----|
A|7--7------------|----------------|11-11-----------|7--7--9-9-9-----|
E|----------------|----------------|9--9------------|5--5--7-7-7-----|

Second verse (My knees are shaking...)

E|----------------|-----------------|----------------|---------------|
B|----------------|-----------------|----------------|---------------|
G|9-------7-------|6--6--6--6-6-6---|9---11--8---9---|6--6--6--6-66--|
D|----------------|-----------------|----------------|---------------|
A|7-------5-------|4--4--4--4-4-4---|7---9---6---7---|4--4--4--4-44--|
E|----------------|-----------------|----------------|---------------|
Breakdown...(X 2)

E|----------------|-----------------|----------------|---------------|
B|5-4-5-4-4-5-4-7-|5-4-5-4-9-9-7----|5-4-5-4-4-5-4-7-|-5---4---5-5---|
G|6-5-6-5-5-6-5-8-|6-5-6-5-9-9-8----|6-5-6-5-5-6-5-8-|6-6-5-5-6-6----|
D|----------------|-----------------|----------------|---------------|
A|----------------|-----------------|----------------|---------------|
E|----------------|-----------------|----------------|---------------|

Da Daaaa... (X2)

E|----4-4---------|-----------------|
B|----5-5----4-4--|--5-5---7-7------|
G|----6-6----5-5--|--6-6---8-8------|
D|-----------6-6--|--7-7---9-9------|
A|----------------|-----------------|
E|----------------|-----------------|

Instrumental Bridge (X2)

E|-----------------------|----------------------|-----------------------|
B|-----------------------|----------------------|-----------------------|
G|-----------------------|----------------------|-----------------------|
D|11-11-------11-11------|9--9-------11-11------|-----------------------|
A|11-11-9--9--11-11-12-12|-----12-12-11-11-9--9-|11-11-9--9--11-11-12-12|
E|9--9--9--9--9--9--9--9-|-----9--9--9--9--9--9-|0--0--0--0--0--0--0--0-|

E|----------------------|
B|----------------------|
G|----------------------|
D|----------------------|
A|14-14-12-12-11-11-9--9|
E|0--0--0--0--0--0--0--0|

End of second pass add on this:

E----------------------|------------------------|-----------------------|
B----------------------|------------------------|--------------4-4------|
G----------------------|------------------------|----XXX-11-11-5-5------|
D6--6--4--4--6--6--7--7|--9--9--7--7--6--6--4--4|4-4-XXX-10-10-4-4--11--|
A0--0--0--0--0--0--0--0|--0--0--0--0--0--0--0--0|3-3-XXX-11-11------11--|
E----------------------|------------------------|4-4----------------9---|

Chord right before last verse: A flat major

No more......(x 2)

E major
A flat major
C# minor(1)
A major
B major

Apply the intro to the outro...

and you should be able to play the whole song

-Robbie
Related for Metro tab