Song name
# A B C D E F G H I J K L M N O P Q R S T U V W X Y Z

The Vines - Get Free tab

=============================================================================
-----------------------------------------------------------------------------
			     GET FREE - The Vines
-----------------------------------------------------------------------------
Tabbed by: Josué
Email: concrete_donkey7@hotmail.com

Band: The Vines
Song: Get Free
Album: Highly Evolved
Release Date: 2002

Tuning: Standard
Timing: 136 bpm.  4/4 time.  This tab is writen showing the timing.
              4|1-+-2-+-3-+-4-+-|
              4  
Look carefully at the spacing as it tells you the exact rhythmn.
You can work out the strumming pattern if you use:  1= down +=up  except for 
on palm mutes where it's all down strokes.




Intro (Distortion):
e|| ----------------|----------------|----------------|----------------||
B|| ----------------|----------------|----------------|----------------||
G||*----------------|----------------|----------------|5---5----------*||
D||*----------------|----------------|----------------|5---5---5-5-5--*||
A|| 3-5-5-5-5^6^6-3-|5-5-5-5-5^6^6-3-|5-5-5-5-5^6^6-3-|3---3---5-5-5---||
E|| ----------------|----------------|----------------|--------3-3-3---||




Verse (Distortion):                                                    
e|| ----------------|----------------|----------------|----------------||
B|| ----------------|----------------|----------------|----------------||
G||*----------------|----------------|----------------|5---5----------*||
D||*5-7-7-7-7-7-7-5-|7-7-7-7-7-7-7-5-|7-7-7-7-7-7-7-7-|5---5---5-5-5--*||
A|| 3-5-5-5-5-5-5-3-|5-5-5-5-5-5-5-3-|5-5-5-5-5-5-5-5-|3---3---5-5-5---||
E|| ----------------|----------------|----------------|--------3-3-3---||
    . . . . . . . .  . . . . . . . .  . . . .




Chorus (Distortion):
e|| ----------------|----------------|----------------|----------------||
B|| ----------------|----------------|----------------|----------------||
G||*5-7---5-7---5-7-|----------------|5-7---5-7---5-7-|---------------*||
D||*5-7---5-7---5-7-|--5-5-5-6-6-3-3-|5-7---5-7---5-7-|--5-5-5-6-6-3-3*||
A|| 3-5---3-5---3-5-|--5-5-5-6-6-3-3-|3-5---3-5---3-5-|--5-5-5-6-6-3-3-||
E|| ----------------|--3-3-3-4-4-1-1-|----------------|--3-3-3-4-4-1-1-||



Solo (Distortion):
e|| ----------------|----------------|----------------|----------------||
B|| ----------------|----------------|----------------|----------------||
G||*7-7-5-7---7^8p5-|7---5-7---7^8p5-|7---5-7---7^8p5-|7p5------------*||
D||*7-7-------------|7---------------|7---------------|----7---5---3--*||
A|| 5-5-------------|5---------------|5---------------|----------------||
E|| ----------------|----------------|----------------|----------------||




Bridge (Clean):                                                      
e|----------------|----------------|----------------|----------------|
B|----------------|----------------|----------------|----------------|
G|----------------|----------------|----------------|----------------|
D|8-----6-6-8-8---|5-----3-3-5-5---|8-----6-6-8-8---|7-----5-5-7-7---|
A|8-8-8-----------|5-5-5-----------|8-8-8-----------|7-7-7-----------|
E|6---------------|3---------------|6---------------|5---------------|

e|----------------|
B|----------------|
G|----------------|
D|7-----5-5-7-7---|
A|7-7-7-----------| 
E|5---------------|



End the song with either           v right hand tap    
e|---------------------------------h10~~~~~~-----------------------------|
B|---------------------------------h10~~~~~~------Or-just-make-something-|
G|7------------or-------------h7~~~~~~~~~~~~------up,-as-long-as-it-has--|
D|7-D5-------something----------------------0-----sounds-like-it's-ended;|
A|5------------like-this:-------------------0-----It-sounds-like-it------|
E|------------------------------------------------should-end-on-some-sort|
                                            .                 of D.



The Chords used:
e|-----------------------------------------------------------------|
B|-----------------------------------------------------------------|
G|7------5---------------------------------------------------------|
D|7------5------5------6------3------7------8----------------------|
A|5------3------5------6------3------7------8----------------------|
E|--------------3------4------1------5------6----------------------|
  D5     C5     G5     G#5    F5     A5     A#5



Order:
Intro.............x2
Verse.............x2
Chorus............x2
Solo..............x2
Verse.............x2
Chorus............x2
Bridge............x1(Thanks to the author of the other one, I used his)
Intro.............x2
Chorus............x2
End the song.



| . Palm Mute (Will be indicated below)
| ^  bend  eg: 7^8 is half step bend; 7^9 is full whole step bend 
     (ie, bend 1st note to sound like second as written)
| /  slide up
| \  slide down
| h  hammer-on
| p  pull-off
| ~  vibrato
| +  harmonic
| x  Mute note




Lyrics:
I'm gonna get free
I'm gonna get free
I'm gonna get free
Ride into the sun
She never loved me
She never loved me
She never loved me
Why should anyone?

(Come here, come here, come here)
I'll take your photo for ya
(Come here, come here, come here)
Drive you around the corner
(Come here, come here, come here)
You know you really oughta
(Come here, come here, come here)
Move out of California

Get (get)
Me (me)
Far (far)
When I have alot to lose
Save (save)
Me (me)
From (from)
Here (here!)

When it's pretty time
Look into your mind
Don't wait

I'm gonna get free
I'm gonna get free
I'm gonna get free
Ride into the sun
She never loved me
She never loved me
She never loved me
Why should anyone?

(Come here, come here, come here)
I'll take your photo for ya
(Come here, come here, come here)
Drive you around the corner
(Come here, come here, come here)
You know you really oughta
(Come here, come here, come here)
Move out of California 


=============================================================================
Tap to rate this tab
 
# A B C D E F G H I J K L M N O P Q R S T U V W X Y Z