Song name
# A B C D E F G H I J K L M N O P Q R S T U V W X Y Z

The Vines - Get Free tab

Intro
e/------------------------|-----------------
B/------------------------|-----------------
G/------------------------|-5--5------------
D/------------------------|-5--5--5--5------
A/---3/5-5-5-5-5-5-5-5--x3|-3--3--5--5------
E/------------------------|-------3--3------

Verse
e/------------------------|-----------------
B/------------------------|-----------------
G/---5/7-7-7-7-7-7-7-7----|-5--5------------
D/---5/7-7-7-7-7-7-7-7----|-5--5--5--5------
A/---3/5-5-5-5-5-5-5-5----|-3--3--5--5------
E/------------------------|-------3--3------


Chorus
e/------------------------|-----------------
B/------------------------|-----------------
G/----5-7--5-7--5-7-------|--------3-3------
D/----5-7--5-7--5-7-------|-5-5-5--3-3--3-3-
A/----3-5--3-5--3-5-------|-5-5-5--1-1--3-3-
E/------------------------|-3-3-3-------1-1-

Post Chorus
e/------------------------|-----------------If you find the first part hard treat it like
B/------------------------|-----------------the verse.Keep the chord shape and move it up
G/-7--5-7----5-7--5-7----5|-7/8--7-5--------and down picking the notes.
D/-7-----------7----------|----------7-5----
A/-5-----------5----------|-----------------
E/------------------------|-----------------

Bridge
e/------------------------|---------------------
B/------------------------|---------------------
G/-----------3-1-3-3------|-----------7-5--7-7--
D/---5-3-5-5-3------------|---5-3-5-5-7---------
A/---5-------1------------|---5-----------------
E/---3--------------------|---3-----------------

The rest of the song is just these parts repeated where needed.
Tap to rate this tab
# A B C D E F G H I J K L M N O P Q R S T U V W X Y Z