Song name
# A B C D E F G H I J K L M N O P Q R S T U V W X Y Z

The Virginmarys - Just A Ride tab

I don't know is the bridge is ok because i learn this song by ear.

Intro = 

E|------------------------------------------------------------------------|
B|------------------------------------------------------------------------|
G|--4-2-4-2-4-2----------7--7--7--7-----7--7--7--7--7--7--7--7------------|
D|--4-2-4-2-4-2----------7--7--7--7-----7--7--7--7--7--7--7--7----------4-|
A|--2-0-2-0-2-0-2-4-2-0--5--5--5--5-----7--7--7--7--7--7--7--7----------4-|
E|----------------------------------------2--2--2--2--2--2--2--------2--2-|

Verse = 

E|------------------------------------------------------------------------|
B|------------------------------------------------------------------------|
G|------------------------------------------------------------------------|
D|----4---4---4---4---4---4---7---7---7---7---7---7---7---7---7---7---7---|
A|--2---2---2---2---2---2---5---5---5---5---5---5---7---7---7---7---7---7-|
E|------------------------------------------------------------------------|

E|------------------------------------------------------------------------|
B|------------------------------------------------------------------------|
G|------------------------------------------------------------------------|
D|----4---4---4---4---4---4---7---7---7---7---7---7---7---7---7---7---7---|
A|--2---2---2---2---2---2---5---5---5---5---5---5---7---7---7---7---7---7-|
E|------------------------------------------------------------------------|

Pre Chorus = 

E|-----------------------------|
B|-----------------------------|
G|------4-4-4-4--7-7-7---------|
D|------4-4-4-4--7-7-7---------| 
A|------2-2-2-2--5-5-5---------| 
E|-----------------------------|

Chorus = 

E|-------------------------------------------------------------------|
B|-------------------------------------------------------------------|
G|--44444444--22222222----------------------44444444--22222222-------|
D|--44444444--22222222--22222222--55555555--44444444--22222222--2~---|
A|--22222222--00000000--22222222--55555555--22222222--00000000--2~---|
E|----------------------00000000--33333333----------------------0~---|

Return To The Intro.
Return To The Verse.
Return To The Pre Chorus.
Return To Chorus.

Bridge = 

E|-------------------------------------------------------------------|
B|--------3----3-----------2----2----------3----3-----------2---2----|
G|----------4----4-----------2----2----------4----4-----------2---2--|
D|-----4------2----2----2------2----2---4------2----2----2------2---2|
A|---2---2------------0---0-----------2---2------------0---0---------|
E|-------------------------------------------------------------------|
Tap to rate this tab
# A B C D E F G H I J K L M N O P Q R S T U V W X Y Z