Song name
# A B C D E F G H I J K L M N O P Q R S T U V W X Y Z

The Virginmarys - Keep Me On The Run tab

Artist: The Virginmarys
Album: The Virginmarys
Song: Keep Me On The Run
Tuning: Standard
Tabbed By: Chappers27

This is my interpretation of the song, it all seems right when I play along with 
it so I stuck with it
there may be a slight variation on the C#m chord in the chorus, and if there is 
then feel free to offer
suggestions as to what it might be.
Enjoy :)


Intro

|---------------------------------|
|-3-3-3-3-3-3-3-3-3-3-3-3-3-3-3-3-|
|---------------------------------|
|--4---4---4---4---4---4---4---4--|
|2---2---2---2---2---2---2---2----|
|---------------------------------|

Verse

|----------------------------------------------------------------------------|
|-3-3-3-3-3-3-3-3-3-3-3-3-3-3-3-3-3-3-3-3-3-3-3-3-3-3-3-3-3-3-3-3-3-3-3-3-3-3|
|----------------------------------------------------------------------------|
|--4---4---4---4---4---4---4---4---4---4---4---4---4---4---4---4---4---4---4-|    
|2---2---2---2---0---0---2---2---2---2---2---2---2---2---5---4---2---2---2---|
|----------------------------------------------------------------------------|

|---------------------------------|
|-3-3-3-3-3-3-3-3-3-3-3-3-3-3-3-3-|
|---------------------------------|
|--4---4---4---4---4---4---4---4--|
|2---2---2---2---2---2---2---2----|
|---------------------------------|

|----------------------------------------------------------------------------|
|-3-3-3-3-3-3-3-3-3-3-3-3-3-3-3-3-3-3-3-3-3-3-3-3-3-3-3-3-3-3-3-3-3-3-3-3-3-3|
|----------------------------------------------------------------------------|
|--4---4---4---4---4---4---4---4---4---4---4---4---4---4---4---4---4---4---4-|    
|2---2---2---2---0---0---2---2---2---2---2---2---2---2---5---4---2---2---2---|
|----------------------------------------------------------------------------|

|---------------------------------|
|-3-3-3-3-3-3-3-3-3-3-3-3-3-3-3-3-|
|---------------------------------|
|--4---4---4---4---4---4---4---4--|
|2---2---2---2---2---2---2---2----|
|---------------------------------|

Chorus

|-3-3-3-3-3-3-|-3-3-3-3-3-3-|-2-2-2-2-2-2-|-2-2-2-2-2-2-|
|-3-3-3-3-3-3-|-3-3-3-3-3-3-|-3-3-3-3-3-3-|-3-3-3-3-3-3-|
|-0-0-0-0-0-0-|-0-0-0-0-0-0-|-4-4-4-4-4-4-|-4-4-4-4-4-4-|
|-0-0-0-0-0-0-|-0-0-0-0-0-0-|-4-4-4-4-4-4-|-4-4-4-4-4-4-|
|-2-2-2-2-2-2-|-2-2-2-2-2-2-|-2-2-2-2-2-2-|-2-2-2-2-2-2-|
|-3-3-3-3-3-3-|-3-3-3-3-3-3-|-------------|-------------|

|-3-3-3-3-3-3-|-3-3-3-3-3-3-|-2-2-2-2-2-2-|-2-2-2-2-2-2-|
|-3-3-3-3-3-3-|-3-3-3-3-3-3-|-3-3-3-3-3-3-|-3-3-3-3-3-3-|
|-0-0-0-0-0-0-|-0-0-0-0-0-0-|-4-4-4-4-4-4-|-4-4-4-4-4-4-|
|-0-0-0-0-0-0-|-0-0-0-0-0-0-|-4-4-4-4-4-4-|-4-4-4-4-4-4-|
|-2-2-2-2-2-2-|-2-2-2-2-2-2-|-2-2-2-2-2-2-|-2-2-2-2-2-2-|
|-3-3-3-3-3-3-|-3-3-3-3-3-3-|-------------|-------------|

|-4-4-4-4-4-4-|-4-4-4-4-4-4-|-2-2-2-2-2-2-|-2-2-2-2-2-2-|
|-5-5-5-5-5-5-|-5-5-5-5-5-5-|-3-3-3-3-3-3-|-3-3-3-3-3-3-|
|-6-6-6-6-6-6-|-6-6-6-6-6-6-|-2-2-2-2-2-2-|-2-2-2-2-2-2-|
|-6-6-6-6-6-6-|-6-6-6-6-6-6-|-0-0-0-0-0-0-|-0-0-0-0-0-0-|
|-4-4-4-4-4-4-|-4-4-4-4-4-4-|-------------|-------------|
|-------------|-------------|-------------|-------------|

|-4-4-4-4-4-4-|-4-4-4-4-4-4-|-2-2-2-4-4-4-|
|-5-5-5-5-5-5-|-5-5-5-5-5-5-|-3-3-3-5-3-5-|
|-6-6-6-6-6-6-|-6-6-6-6-6-6-|-2-2-2-6-6-5-|
|-6-6-6-6-6-6-|-6-6-6-6-6-6-|-0-0-0-6-6-6-|
|-4-4-4-4-4-4-|-4-4-4-4-4-4-|-------4-4-4-|
|-------------|-------------|-------------|

Verse

|---------------------------------|
|-3-3-3-3-3-3-3-3-3-3-3-3-3-3-3-3-|
|---------------------------------|
|--4---4---4---4---4---4---4---4--|
|2---2---2---2---2---2---2---2----|
|---------------------------------|

|----------------------------------------------------------------------------|
|-3-3-3-3-3-3-3-3-3-3-3-3-3-3-3-3-3-3-3-3-3-3-3-3-3-3-3-3-3-3-3-3-3-3-3-3-3-3|
|----------------------------------------------------------------------------|
|--4---4---4---4---4---4---4---4---4---4---4---4---4---4---4---4---4---4---4-|    
|2---2---2---2---0---0---2---2---2---2---2---2---2---2---5---4---2---2---2---|
|----------------------------------------------------------------------------|

Chorus

|-3-3-3-3-3-3-|-3-3-3-3-3-3-|-2-2-2-2-2-2-|-2-2-2-2-2-2-|
|-3-3-3-3-3-3-|-3-3-3-3-3-3-|-3-3-3-3-3-3-|-3-3-3-3-3-3-|
|-0-0-0-0-0-0-|-0-0-0-0-0-0-|-4-4-4-4-4-4-|-4-4-4-4-4-4-|
|-0-0-0-0-0-0-|-0-0-0-0-0-0-|-4-4-4-4-4-4-|-4-4-4-4-4-4-|
|-2-2-2-2-2-2-|-2-2-2-2-2-2-|-2-2-2-2-2-2-|-2-2-2-2-2-2-|
|-3-3-3-3-3-3-|-3-3-3-3-3-3-|-------------|-------------|

|-3-3-3-3-3-3-|-3-3-3-3-3-3-|-2-2-2-2-2-2-|-2-2-2-2-2-2-|
|-3-3-3-3-3-3-|-3-3-3-3-3-3-|-3-3-3-3-3-3-|-3-3-3-3-3-3-|
|-0-0-0-0-0-0-|-0-0-0-0-0-0-|-4-4-4-4-4-4-|-4-4-4-4-4-4-|
|-0-0-0-0-0-0-|-0-0-0-0-0-0-|-4-4-4-4-4-4-|-4-4-4-4-4-4-|
|-2-2-2-2-2-2-|-2-2-2-2-2-2-|-2-2-2-2-2-2-|-2-2-2-2-2-2-|
|-3-3-3-3-3-3-|-3-3-3-3-3-3-|-------------|-------------|

|-4-4-4-4-4-4-|-4-4-4-4-4-4-|-2-2-2-2-2-2-|-2-2-2-2-2-2-|
|-5-5-5-5-5-5-|-5-5-5-5-5-5-|-3-3-3-3-3-3-|-3-3-3-3-3-3-|
|-6-6-6-6-6-6-|-6-6-6-6-6-6-|-2-2-2-2-2-2-|-2-2-2-2-2-2-|
|-6-6-6-6-6-6-|-6-6-6-6-6-6-|-0-0-0-0-0-0-|-0-0-0-0-0-0-|
|-4-4-4-4-4-4-|-4-4-4-4-4-4-|-------------|-------------|
|-------------|-------------|-------------|-------------|

|-4-4-4-4-4-4-|-4-4-4-4-4-4-|-2-2-4-4-2-2-|-2-2-4-4-2-2-|
|-5-5-5-5-5-5-|-5-5-5-5-5-5-|-3-3-5-3-3-3-|-3-3-3-5-3-3-|
|-6-6-6-6-6-6-|-6-6-6-6-6-6-|-2-2-6-6-4-4-|-2-2-6-5-4-4-|
|-6-6-6-6-6-6-|-6-6-6-6-6-6-|-0-0-6-6-4-4-|-0-0-6-6-4-4-|
|-4-4-4-4-4-4-|-4-4-4-4-4-4-|-----4-4-2-2-|-----4-4-2-2-|
|-------------|-------------|-------------|-------------|

Final Verse/ outro

|----------------------------------------------------------------------------|
|-3-3-3-3-3-3-3-3-3-3-3-3-3-3-3-3-3-3-3-3-3-3-3-3-3-3-3-3-3-3-3-3-3-3-3-3-3-3|
|----------------------------------------------------------------------------|
|--4---4---4---4---4---4---4---4---4---4---4---4---4---4---4---4---4---4---4-|    
|2---2---2---2---0---0---2---2---2---2---2---2---2---2---5---4---2---2---2---|
|----------------------------------------------------------------------------|
Tap to rate this tab
# A B C D E F G H I J K L M N O P Q R S T U V W X Y Z