Guitaretab - guitar tabs
Song name
# A B C D E F G H I J K L M N O P Q R S T U V W X Y Z

The Virgins - Radio Christiane tab

-------------------------------------------------------------------------------
			     Radio Christiane - The Virgins
-------------------------------------------------------------------------------
Tabbed by:fgooga


Tuning:

e|-----------------------------------------------|
B|--9-9--9-9-------------------------------------|
G|--9-9--9-9--6-6---6-6--------------------------| x5
D|--9-9--9-9--7-7---7-7--------------------------|
A|--7-7--7-7--7-7---7-7--------------------------|
E|------------5-5---5-5--------------------------|
   "feelin fine..feeling the same

Interlude:
e|-----------------------------------------------|
B|-----------------------------------------------|
G|-----------------------------------------------|
D|----2-4-6-6-9~---------------------------------| x4
A|--4--------------------------------------------|
E|-----------------------------------------------|

Note the next part is straight bass
[ Tab from: http://www.guitaretab.com/t/the-virgins/112793.html ]
"solo"?
e|--14b-14b-14b-14b-12-14-14b-12--14-14b-14b-14b-14b-12-14-14b-12--12-12-12-|
B|------------------------------14-------------------------------14--14-14--|
G|--------------------------------------------------------------------------|
D|--------------------------------------------------------------------------|
A|--------------------------------------------------------------------------|
E|--------------------------------------------------------------------------|
"oh...."
e|--12----12----12----------12---12----12------------------------------------|
B|-----14----14----------------14---14---------------------------------------|
G|---------------------------------------------------------------------------|
D|---------------------------------------------------------------------------|
A|---------------------------------------------------------------------------|
E|---------------------------------------------------------------------------|


e|-----------------------------------------------|
B|--9-9--9-9-------------------------------------|
G|--9-9--9-9--6-6---6-6--------------------------| x2
D|--9-9--9-9--7-7---7-7--------------------------|
A|--7-7--7-7--7-7---7-7--------------------------|
E|------------5-5---5-5--------------------------|

e|--14b-12-14-14b-14b-14b-12-14-14b-14b-14b-12------------------|
B|--------------------------14----------------14----------------|
G|--------------------------------------------------------------|
D|--------------------------------------------------------------|
A|--------------------------------------------------------------|
E|--------------------------------------------------------------|

e|--12----12----12-------------------------------------|
B|-----14----14----------------------------------------|
G|-----------------------------------------------------|
D|-----------------------------------------------------|
A|-----------------------------------------------------|
E|-----------------------------------------------------|

e|-----------------------------------------------|
B|-----------------------------------------------|
G|-----------------------------------------------|
D|----2-4-6-6-9~---------------------------------| x7
A|--4--------------------------------------------|
E|-----------------------------------------------|


| /  slide up
| \  slide down
| h  hammer-on
| p  pull-off
| ~  vibrato
| +  harmonic
| x  Mute note
===============================================================================
Related for Radio Christiane tab