Guitaretab - guitar tabs
Song name
# A B C D E F G H I J K L M N O P Q R S T U V W X Y Z

The Virgins - One Week Of Danger tab

-------------------------------------------------------------------------------
			    ONE WEEK OF DANGER -The Virgins
-------------------------------------------------------------------------------
Tabbed by:Matt Clark
Email:mattman_clark@hotmail.co.uk

Tuning: standard
[ Tab from: http://www.guitaretab.com/t/the-virgins/177997.html ]
e|---------------------------------------------------------------------|
B|---------------------------------------------------------------------|
G|----------5-----------5----------------------------------------------|
D|--5-5-/-8-5--5-55-/-8-5----------------------------------------------|
A|--5-5-/-8-3--5-55-/-8-3----------------------------------------------|
E|--3-3-/-6----3-33-/-6------------------------------------------------|

 for the pre chorus and chorus you just play G and C power chords, with variations on 
strumming patterns which you can figure out by listening to the song.
Related for One Week Of Danger tab