Song name
# A B C D E F G H I J K L M N O P Q R S T U V W X Y Z

The Virgins - Love Is Colder Than Death tab

-------------------------------------------------------------------------------
		    LOVE IS COLDER THAN DEATH - The Virgins
-------------------------------------------------------------------------------

There's not a whole lot to the guitar to this song.

Verse
e|------------------------------0--0--0--------------------------------------|
B|-------------------11-11-11--12-12-12--------------------------------------|
G|-------------------11-11-11------------------------------------------------|
D|-7-7~-11-11~-9-9~--11-11-11------------------------------------------------| (x3)
A|-7-7~-11-11~-9-9~----------------------------------------------------------|
E|-5-5~--9--9~-7-7~----------------------------------------------------------|

Pre-Chorus
e|---------------------------------------------------------------------------|
B|---------------------------------------------------------------------------|
G|-7~--9~-11~-7~-------------------------------------------------------------|
D|-7~--9~-11~-7~-------------------------------------------------------------|
A|-5~--7~--9~-5~-------------------------------------------------------------|
E|---------------------------------------------------------------------------|

Chorus
e|---------------------------------------------------------------------------|
B|---------------------------------------------------------------------------|
G|---------------------------------------------------------------------------|
D|-7-7~-11-11~-9-9~-11-11~--9-9~---------------------------------------------| (x2)
A|-7-7~-11-11~-9-9~-11-11~--9-9~---------------------------------------------|
E|-5-5~--9--9~-7-7~--9--9~--7-7~---------------------------------------------|

There ya go.
	js
===============================================================================
Tap to rate this tab
# A B C D E F G H I J K L M N O P Q R S T U V W X Y Z