Song name
# A B C D E F G H I J K L M N O P Q R S T U V W X Y Z

The Virgins - Teen Lovers tab

Help us improve GuitareTab! Take a short survey!
-------------------------------------------------------------------------------
	              PRIVATE AFFAIR - The Virgins
-------------------------------------------------------------------------------
Tabbed by: jonah strong
Email: jonah_strong34@live.com

Tuning: standard

e|---------------------------------------------------------------------------|
B|---------------------------------------------------------------------------|
G|------66-6--------55-5--------55-5--------33-3-----------------------------|
D|-8-8-8--8-8--6-6-6--6-6--6-6-6--6-6--4-4-4--4-4----------------------------|
A|-8-8---------6-6---------6-6---------4-4-----------------------------------|
E|-6-6---------4-4---------4-4---------2-2-----------------------------------|

synth lead
e|---------------------------------------------------------------------------|
B|---------------------------------------------------------------------------|
G|-10-8-6-5----8-6-5-3-------------------------------------------------------|
D|---------------------------------------------------------------------------|
A|---------------------------------------------------------------------------|
E|---------------------------------------------------------------------------|

"1,2,3,4..." (0:32-0:40)
e|---------------------------------------------------------------------------|
B|-8xx8x88x8-----------------------------------------------------------------|
G|-9xx9x99x9-----------------------------------------------------------------|
D|-9xx9x99x9--(repeat a bit)-------------------------------------------------|
A|-7xx7x77x7-----------------------------------------------------------------|
E|---------------------------------------------------------------------------|

e|---------------------------------------------------------------------------|
B|----9-----9----------------------------------------------------------------|
G|----10----10---------------------------------------------------------------|
D|-11-10-8--10-----(play in a gallop)----------------------------------------|
A|-11-8--8--8----------------------------------------------------------------|
E|-9-----6-------------------------------------------------------------------|

solo
e|----4----------|--|-----4--------------------------------------------------|
B|-6p4-6p4h6-6p4-(x3)--6p4-6h4-----------------------------------------------|
G|----------------------------6----------------------------------------------|
D|---------------------------------------------------------------------------|
A|---------------------------------------------------------------------------|
E|---------------------------------------------------------------------------|


| /  slide up
| \  slide down
| h  hammer-on
| p  pull-off
| ~  vibrato
| +  harmonic
| x  Mute note
===============================================================================
Related for Teen Lovers tab